Song name
# A B C D E F G H I J K L M N O P Q R S T U V W X Y Z

Blues Brothers - Messin With The Kid tab

Help us improve GuitareTab! Take a short survey!
---------------------------------------------------------------------------
			     Messin with the Kid - Blues Brothers
---------------------------------------------------------------------------
Tabbed by:charro2000
Email:noexit@telus.net

Tuning: Standard Tuning (tabbed in key of A - not original key, but can be moved anywhere)
Intro
e|-------------------------------------------------------------------------|
B|-10--8-------------------------------------------------------------------|
G|--------7---5-------5----------------------------------------------------|
D|----------------7-----7--5--7--------------------------------------------|
A|-------------------------------------------------------------------------|
E|-------------------------------------------------------------------------|
Verse(s)
e|-------------------------------------------------------------------------|
B|-------------------------------------------------------------------------|
G|------------------~-----(X4)---------------------------------------------|
D|--------5-----5-h-7------------------------------------------------------|
A|-----7-----7-------------------------------------------------------------|
E|-5-----------------------------------------------------------------------|

e|-------------------------------------------------------------------------|
B|----------------~--------------------------------------------------------|
G|-------5----5-h-7-----(X2)--------------~------------------~-------------|
D|----7----7-----------------------5----5 h 7---------5----5 h 7-----------|
A|-5-----------------------------7----7------------7----7------------------|
E|-----------------------------5----------------5--------------------------|

e|-------------------------------------------------------------------------|
B|-----------------~-------------------~---10--8---------------------------|
G|-------7-----7 h 9---------5-----5 h 7----------7--5----5----------------|
D|----9-----9-------------7-----7-----------------------7----7--5--7-------|
A|-7-------------------5---------------------------------------------------|
E|-------------------------------------------------------------------------|

The song pretty much repeats like this, with a solo or two from horns/harmonica/guitar etc.


| /  slide up
| \  slide down
| h  hammer-on
| p  pull-off
| ~  vibrato
| +  harmonic
| x  Mute note
============================================================================
Related for Messin With The Kid tab