Song name
# A B C D E F G H I J K L M N O P Q R S T U V W X Y Z

Blues Brothers - Jailhouse Rock tab

Jailhouse Rock
Blues Brothers

After I couldn't find this great solo on the net, I tapped it by myself ;-)
Okay, the solo starts on the 15th fret. You REALLY should listen to the
song from the Blues Brothers Soundtrack to get the right feeling for
the speed. I'm pretty sure that this tab is close to 100% correct.
Micha (contact: B286micha@gmx.de)

s = slide
b = bend the side with feeling up and down
h = hammer on

E----14s15--15----15--15----15--15----15--15--------------------------|
H----14s15--15----15--15----15--15----15--15--------------------------|
G------------------------------------------------17--15---------------|
D---------------------------------------------------------17--17------|
A---------------------------------------------------------------------|
E---------------------------------------------------------------------|


E--------------------------------------------------------------------|
H--b18--15-------15-15-----------------------------------------------|
G------------17-----------15-h-16-h-17-----15------------------------|
D-----------------------------------------------17-------------------|
A--------------------------------------------------------------------|
E--------------------------------------------------------------------|


E--------------------------------------------------------------------|
H--------------------------------------------------------------------|
G--------------------------------------------------------------------|
D--15--15------17--17------17--15-----15---17------------------------|
A--15--15------17--17------17--15-----15---17------------------------|
E--------------------------------------------------------------------|


E---------------------------------------------------------------------|
H---------------------------------------------------------------------|
G----19-17---19-17---19-17---19-17----17-------------19--19-----------|
D-------------------------------------------19---17--19--19--17-------|
A---------------------------------------------------------------------|
E---------------------------------------------------------------------|


E----------------------------------------------------------------------|
H---14-14---14-14---14-14---14-14--------------------------------------|
G-------------------------------------17--15---------------------------|
D------------------------------------------------17--17----------------|
A----------------------------------------------------------------------|
E----------------------------------------------------------------------|


E---------------------------------------------------------------------------|
H-15-h-18---15-h-18---15-h-18---15-h-18---15--------------------------------|
G----------------------------------------------15-h-17---15-h-17----15-h-17-|
D---------------------------------------------------------------------------|
A---------------------------------------------------------------------------|
E---------------------------------------------------------------------------|


E--------------------------------------------------------------------------|
H--------------------------------------------------------------------------|
G-----------------15---17--17--17--17--17--17--17--17--17------------------|
D--17-h-15---17--------17--17--17--17--17--17--17--17--17---15----17--17---|
A-----------------------------------------------------------------17--17---|
E--------------------------------------------------------------------------|


That's it!
Tap to rate this tab
 
# A B C D E F G H I J K L M N O P Q R S T U V W X Y Z