Song name
# A B C D E F G H I J K L M N O P Q R S T U V W X Y Z

Blues Brothers - She Caught The Katy tab

----------------------------------------------------------------------------
			  She Caught the Katy- The Blues Brothers
----------------------------------------------------------------------------
Tabbed by: Sam Clements
Email: somhaile103@hotmail.com

I would like to credit 'niuguitarman' for the chords, if you know basic rock and roll 
should be
 able to figure this out from the chords. It's in the key of Bb if you would like to do the
embellishments. I find it's a nice piece to solo over. I play the Blues scale off 6th 
(if you would
 like to know the scale please ask). If you have any questions please feel free to email me.


Tuning: Standard

Intro:
e|----------------------------------------------------------------------------|
B|----------------------------------------------------------------------------|
G|----------------------------------------------------------------------------|
D|--3-----3------3-----3-------3----------------------------------------------|
A|--1-----1------1-----1-------1----------------------------------------------|
E|----------------------------------------------------------------------------|

Repeat as necessary.


Verse and Bridge riffs:

                   Bb                                           F
e|-------------------                             -----------------|
B|-------------------  Repeat Twice                ----------------|        Repeat Twice
G|-------------------                            ------------------|
D|--3--3---5--3------                           -------------------|
A|--1--1---1--1------                            ------3--3--5--3--|
E|-------------------                            ------1--1--1--1--|

                Eb                                            Em
e|----------------------                                  --------------------|
B|----------------------                                  --------------------|
G|---------------------       Repeat twice                 -------------------|     
twice
D|--8--8--10--8--------                                     --9---9--- 11--9--|
A|--6--6--6---6--------                                     --7---7----7---7--|
E|---------------------                                      -----------------|

                Eb
e|--------------------|
B|--------------------|
G|--------------------|     Repeat twice
D|--------------------|
A|---6---6---8---6----|
E|---4---4---4---4----|


Bb                   F                      Bb
She caught the katy, left me a mule to ride
Bb                   F                      Bb
She caught the katy, left me a mule to ride
Bb                  Bb                    Bb
She caught the katy, left me a mule to ride
Eb                               Em
The train polled out and I swung on behind
Bb                    F                         Bb
Crazy 'bout her, that hard-headed woman of mine

[verse 2:]
Man, my baby long. Great God, she mighty, my baby tall
You know my baby long. Great God, she mighty, my baby tall
Well, my baby, she long. My baby, she tall.
She sleep with her head in the kitchen
And her feet's out in the hall
Crazy 'bout her, that hard-headed woman of mine

[Bridge:]
        Eb
Well, I love my baby. She's so fine
Bb
   Wish she'd come and see me sometime
            Ab
She don't believe I love her, look what a hole I'm in
            F
She don't believe I'm sinking, look what shape I'm in

[Instrumental break]

[Verse 1:]
She caught the katy, left me a mule to ride
She caught the katy, left me a mule to ride
Well, my baby caught the katy, left me a mule to ride
The train polled out and I swung on behind
Bb                    F                  Eb                        Bb
Crazy 'bout her, that hard-headed woman, hard-headed woman of mine

I hope you enjoy playing this. Please comment.
===============================================================================
Tap to rate this tab
 
# A B C D E F G H I J K L M N O P Q R S T U V W X Y Z