Song name
# A B C D E F G H I J K L M N O P Q R S T U V W X Y Z

Blues Brothers - Stand By Your Man tab

Tabbed by Nils Peters

Standard Tuning

Intro:

     A       D       A   *(Riff)
e|--------------3---------------|
B|------2--------2---2----------|
G|-------2----2------2---1-2-4--|
D|----2------0-------2----------|
A|---0---------------0----------|
E|------------------------------|


A                           E
Sometimes it's hard to be a woman,
Bm              E7               A
giving all your love to just one man.
D                   A      D
And if you love him, oh be proud of him,
A            E7              A     D A E
'cause after all he's just a man.      *


    A             C#7    D
    Stand by your man,   give him to arms to cling to,
e|--5-----7--9----------------4---5--7----5--4--------|
B|----------------9-/10--7-------------------------7--|
G|----------------------------------------------------|
D|----------------------------------------------------|
A|----------------------------------------------------|
E|----------------------------------------------------|

    A             F#
    and something warm to come to,
e|----------------------------------------------------|
B|--5---5---5-----7----5------------------------------|
G|------------------------7----6----------------------|
D|----------------------------------------------------|
A|----------------------------------------------------|
E|----------------------------------------------------|

    B                   E7
    When nights are cold and lonely.
e|----------------------------------------------------|
B|----------------------------------------------------|
G|--4----4-----------------------4--------------------|
D|--------------7---6----6---7------------------------|
A|----------------------------------------------------|
E|----------------------------------------------------|

    A             C#7    D
    Stand by your man,   and tell the world you love him,
e|--5-----7--9---------------4----5---7-----5---4--------|
B|----------------9-/10--7----------------------------7--|
G|-------------------------------------------------------|
D|-------------------------------------------------------|
A|-------------------------------------------------------|
E|-------------------------------------------------------|

    A           E7               C#7  F#7
    keep giving all the love you ca-a-a-an. Baby!
e|----------------------------------------------------|
B|--5----7-7----9---9---10---12--9--9-7-6-------------|
G|----------------------------------------------------|
D|----------------------------------------------------|
A|----------------------------------------------------|
E|----------------------------------------------------|

    D     E       A  D A   E A
    Stand by your ma-a-an.
e|--5-----7--9p7--9--7-5------------------------------|
B|----------------------------------------------------|
G|----------------------------------------------------|
D|----------------------------------------------------|
A|----------------------------------------------------|
E|----------------------------------------------------|


Enjoy!

Long life TRFP!
Tap to rate this tab
# A B C D E F G H I J K L M N O P Q R S T U V W X Y Z