Song name
# A B C D E F G H I J K L M N O P Q R S T U V W X Y Z

Blues Brothers - Rawhide tab

This is my first tab, i hope you like it ;) ěHammond
0'16''

|-------------0-0-0--0---3-3-3----3-----5-5-5-3-5---3-5-3-|
|--1-1-1--1--1-1-1------5-5-5----5-5----------------------|
|-2-2-2---------------------------------------------------|
|---------------------------------------------------------|
|---------------------------------------------------------|
|---------------------------------------------------------|


|------0---------0----------0-|
|5----1-1-3-3-1---3-1-3-3-3---|
|----2---------2-------------2|
|-----------------------------|
|-----------------------------|
|-----------------------------|
Tap to rate this tab
 
# A B C D E F G H I J K L M N O P Q R S T U V W X Y Z