Blues Brothers - Sweet Home Chicago tab

e-----10-------10-----9--------10-------10------9----7--------|
B-/12----12-/12---12--10---/12----12-/12---12---10---8--------|
G--------------------------------------------------------9----|
D-------------------------------------------------------------|
A-------------------------------------------------------------|
E-------------------------------------------------------------|


e---4------3------2---0-------------|
B-----------------------------------|
G-4---4--3---3--2---2---------------|
D-----------------------------------|
A-------------------------0-1-2-----|
E-----------------------------------|

or...

e-----10-------10-----9--------10-------10------9----7--------|
B-/12----12-/12---12--10---/12----12-/12---12---10---8--------|
G--------------------------------------------------------9----|
D-------------------------------------------------------------|
A-------------------------------------------------------------|
E-------------------------------------------------------------|


e---4------3------2---0-------------|
B-----------------------------------|
G-4---4--3---3--2---2---------------|
D-------------------------7-8-9-----|
A-------------------------7-8-9-----|
E-------------------------5-6-7-----|
Tap to rate this tab
 
# A B C D E F G H I J K L M N O P Q R S T U V W X Y Z