Song name
# A B C D E F G H I J K L M N O P Q R S T U V W X Y Z

Blues Brothers - Soul Man tab

My first tab so please no nasty comments and I did not get this from a book.

Intro
E ------------------------7~~~---9-9~~----11--------------|
B -----9~~~--9\7-7-7~~------------------------------------|
G ---------------------5/7----7/9-----9/11----------------|
D --7/9-----9-----7---------------------------------------|
A --------------------------------------------------------|
E --------------------------------------------------------|

Verses (x10)
E --4-4-4--2-0-|
B --5-5-5--2-0-|
G -------------|
D -------------|
A -------------|
E -------------|

Chorus
E -----0--0---3-2-0-3-2-0-----0-0-10-10-10-b12-12-12~~~3-2-0-3-2-0-----0-0--|
B --0-2------------3-----3-0-2------------------------------3-----3-0-2-----|
G --------------------------------------------------------------------------|
D --------------------------------------------------------------------------|
A --------------------------------------------------------------------------|
E --------------------------------------------------------------------------|

E -----0--|
B ----2-0-|
G --2-----|
D --------|
A --------|
E --------|

Solo
E ---------------------------------8~~~------10-10-----12-12-----13~~~-|
B ------10~~~-----10\8-8-8~~~------------------------------------------|
G ------------------------------6/8------8/10-----10/12-----12/14------|
D --8/10--------10------8----------------------------------------------|
A ---------------------------------------------------------------------|
E ---------------------------------------------------------------------|

E ----13\11-11--11~~~------10~--10--10-------0----|
B ------------------------------------------2-0---|
G --14--------12-------8/10---10--10--10\-2-------|
D ------------------------------------------------|
A ------------------------------------------------|
E ------------------------------------------------|

end of the guitar part hope I got this right
Tap to rate this tab
 
# A B C D E F G H I J K L M N O P Q R S T U V W X Y Z