Song name
# A B C D E F G H I J K L M N O P Q R S T U V W X Y Z

Blues Brothers - Rawhide tab

This solo was played by Steve 'Colonel' Cropper in the movie 'The Blues Brothers 1980' at the 'Bob's 
Country Bunker' scene. After 3 months of testing and experimenting i have mastered the Tab:

|---------------------------1-----1-----1--1-----4-----4-----4---4-3-4------|
|-----2-----2-----2--2--1s2---2s3---2s3------5s6---5s6---5s6---5s6-5-6------|
|-2s3---2s3---2s3-----------------------------------------------------------|
|---------------------------------------------------------------------------|
|---------------------------------------------------------------------------|
|---------------------------------------------------------------------------|

|-4-6-4-6--4-6-4--------------------------------6-6-6-8-8-8-6---------------|
|----------------6-----4h6-6-6-4--------6s4-4-4-----------------------------|
|------------------3-6-----------6-3-3--8s6-6-6-6-6-6-8-8-8-6---------------|
|-------------------------------------------------------------8s6-6-8-------|
|---------------------------------------------------------------------------|
|---------------------------------------------------------------------------|

And that is it, 
Tap to rate this tab
# A B C D E F G H I J K L M N O P Q R S T U V W X Y Z