Song name
# A B C D E F G H I J K L M N O P Q R S T U V W X Y Z

Blues Brothers - Ghosts In The Sky tab

e-------------------------------------------------------|
b-------------------------------------------------------|
g-------------------------------------------------------|
d--------------------------------------------0-2-22---2-|
a----0-00-2-3-33-0---------------0-00-2-3-33--------3---|
e--0---------------3-33-0-3----0------------------------|


e------------------------------------------------------|
b------------------------------------------------------|
g------2-2-22------------------------------------------|
d--2-2--------2-2-22-----------------------------------|
a--------------------3-0------2--3-33----2/3-00---0----|
e------------------------1-11------------------3-------|


e------------------------------------------------------|
b------------------------------------------------------|
g------------------------------------------------------|
d-----------2------------------------------------------|
a--------0-------------0----------0--3-3-0-0-----------|
e---0-0------------0-0----0---0-0----------------------|
Tap to rate this tab
# A B C D E F G H I J K L M N O P Q R S T U V W X Y Z