Blues Saraceno - Bong Squad tab

This is the "Call of Duty World at War trailer theme" Im pretty sure this is how its played.


E----------------------------|
b----------------------------|
g----------5-5---------------|
d--------3-------5-5---------|
a----5-5-------3-------5-5---|
e--0-----------------5-------|



E-------------------------------------------------------------|
b-------------------------------------------------------------|
g-------------------5-/-7-7------------7-/-5-5----------------|
d--5-6-5-3-0-3-0----5-/-7-7-5-5-0-3-0--7-/-5-5--5-6-5-3-0-3-0-|
a--5-6-5-3-0-3-0----3-/-5-5-5-5-0-3-0--5-/-3-3--5-6-5-3-0-3-0-|
e--5-6-5-3-0-3-0------------5-5-0-3-0-----------5-6-5-3-0-3-0-|



E------------------------------------------------------------|
b------------------------------------------------------------|
g------------------------------------------------------------|
d--3-0-5-6-8-------------------------------------------------|
a--3-0-5-6-8-------------------------------------------------|
e--3-0-5-6-8-------------------------------------------------|
Tap to rate this tab
 
# A B C D E F G H I J K L M N O P Q R S T U V W X Y Z