Song name
# A B C D E F G H I J K L M N O P Q R S T U V W X Y Z

Blues Saraceno - Bong Squad tab

Drop c is the correct tuning, but drop d sounds pretty good.
You'll have to listen to the song to figure out how it sounds exactly. It is probably a 
song you'll mostly freestyle, anyway.


Verse
----------------------|
----------------------|
--------5-------------|
-------3------5-------|
--5----------3------5-|
-0-----------------5--|

Chorus
-----------------------------------------------------|
-----------------------------------------------------|
-------------------5-7~----------------------7-5~----|
-5/6\5/6\5---3-0---5-7~----5/6\5/6\5---3-0---7-5~----|
-5/6\5/6\5---3-0---3-5~----5/6\5/6\5---3-0---5-3~----|
-5/6\5/6\5---3-0-----------5/6\5/6\5---3-0-----------|


------------------------------------------------------|
------------------------------------------------------|
-------------------5-7~-------------------------------|
-5/6\5/6\5---3-0---5-7~----5/6\5/6\5---3-0---5-0------|
-5/6\5/6\5---3-0---3-5~----5/6\5/6\5---3-0---5-0------|
-5/6\5/6\5---3-0-----------5/6\5/6\5---3-0---5-0------|

BRIDGE
-----------------------|
-----------------------|
-----------------------|
-3-0---0-5---0-6---0-7-|
-3-0---0-5---0-6---0-7-|
-3-0---0-5---0-6---0-7-|
Tap to rate this tab
# A B C D E F G H I J K L M N O P Q R S T U V W X Y Z