Song name
# A B C D E F G H I J K L M N O P Q R S T U V W X Y Z

Blues Saraceno - Evil Ways tab

                             Evil Ways (Justice Mix) - Blues saraceno
Tabbed by:Tyboy19211

Tuning:DADGBE
Verse
e|---------------------------------------------|
B|---------------------------------------------|
G|------------------2--------------------------|
D|--0-0---0-0-0---0---5h3-0--0-0---0-----------|
A|--0--0h3--0--0h3-----------0--0h3---3---5----|
E|--0-------0----------------0-------3---5-----|

2nd Verse Variation Instead of G:2 D:5h3
e|----------|
B|----------|
G|----------|
D|----3p0---|
A|-------3--|
E|----------|
Chorus
e|-------------------------|
B|-------------------------|
G|-------------------------| x2
D|---33p0h3-0-0-000--------|
A|---33p0h3-0-0-000--------|
E|---33p0h3-0-0-000--------|


************************************

| /   slide up
| \   slide down
| h   hammer-on
| p   pull-off
| ~   vibrato
| +   harmonic
| x   Mute note
| b   Bend
| pb  Pre-bend
| br  Bend release
| pbr Pre-bend release
| brb Bend release bend

************************************
Tap to rate this tab
 
# A B C D E F G H I J K L M N O P Q R S T U V W X Y Z