Song name
# A B C D E F G H I J K L M N O P Q R S T U V W X Y Z

Blues Traveler - Freedom tab

This is one of my favorite Blues Traveler tunes, hope you enjoy it. 

Intro: (Clean Electric) - Let ring 

E|---|-3-|-3-|-0-|-3-|-2-|---|
B|-2-|-3-|-3-|-0-|-3-|-3-|-2-|
G|-2-|-0-|-2-|-1-|-0-|-2-|-2-|
D|-2-|-0-|-0-|-2-|-0-|-0-|-2-|
A|-0-|-2-|---|-2-|-2-|---|-0-|
E|---|-3-|---|-0-|-3-|---|---|
   A   G   D   E   G   D   A

Verse Riff: (Distortion) - Chan sometimes plays it with a wah

E|-----------------|-----------------|
B|-----------------|-----------------|
G|-----------------|-----------------|
D|-------------5-5-|-----------------|
A|-3h5-3h5-3h5-----|-3h5-3h5-3h5-----|
E|-----------------|-------------3-1-| 2x

2nd Verse Riff:  

E|-----------------|---------------|---------|---------|
B|-6-----6-----6---|-----5-5-----5-|-5-5-5-5-|-7-7-7-7-|
G|-5---5-----5---5-|---5-------5---|-5-5-5-5-|-7-7-7-7-|
D|-0-------0-------|-0-------------|-5-5-5-5-|-7-7-7-7-|
A|-----------------|---------------|-3-3-3-3-|-5-5-5-5-|
E|-----------------|---------------|---------|---------| 
        Dm7               D             C         D      2x 

(1st Verse Riff) 

Chorus: 

E|-5-5-5-5-|-3-3-3-3-|-5-5-5-5--4--3-3-3-3|
B|-5-5-5-5-|-3-3-3-3-|-5-5-5-5--4--3-3-3-3|
G|-6-6-6-6-|-4-4-4-4-|-6-6-6-6--5--4-4-4-4|
D|-7-7-7-7-|-5-5-5-5-|-7-7-7-7--6--5-5-5-5|
A|-7-7-7-7-|-5-5-5-5-|-7-7-7-7--6--5-5-5-5|
E|-5-5-5-5-|-3-3-3-3-|-5-5-5-5--4--3-3-3-3| 
      A         G         A    G#     G
E|-5-5-5-5-|-3-3-3-3-|-----------|
B|-5-5-5-5-|-3-3-3-3-|-7-7-7-7-7-|
G|-6-6-6-6-|-4-4-4-4-|-7-7-7-7-7-|
D|-7-7-7-7-|-5-5-5-5-|-7-7-7-7-7-|
A|-7-7-7-7-|-5-5-5-5-|-5-5-5-5-5-|
E|-5-5-5-5-|-3-3-3-3-|-----------|
      A         G          D
And Then ----- 

1st Verse Riff 2x
2nd Verse Riff 2x
1st Verse Riff 2x 
Chorus 

(Harp Solo) 

(Guitar Solo) Solo over the 1st Verse Riff 

Bridge: (Heavy Distortion) 

E|----------|-------------|
B|----------|-------------|
G|----------|-------------|
D|-2-2-2----|-2-2-2-------|   4x
A|-2-2-2----|-2-2-2-------|
E|-0-0-0-3b-|-0-0-0-3b-3b-| 

1st Verse Riff 2x

1st Verse Riff again for 2x
2nd Verse Riff 2x
1st Verse Riff 2x
Chorus X2  

end on the D 

Hope you all enjoyed this song
Tap to rate this tab
# A B C D E F G H I J K L M N O P Q R S T U V W X Y Z