Song name
# A B C D E F G H I J K L M N O P Q R S T U V W X Y Z

Blues Traveler - Hook tab

Blues Traveler - Hook

Album: Four
Instrument: Guitar
Tuning: eBGDAE

Tabbed By: Orin Hall


Intro

e||--5---55--------------9----12-9--------------------------x-5-5--5-xx--------x----------||
B||--5---55----9---99----9h10-10-10----9-----12-9-----7--7--x-5-5--5-xx--7--7--x-9-9-999--||
G||--6---66----9---99----9----9--9-----9-h10-10-10----7--7--x-6-6--6-xx--7--7--x-9-9-999--||
D||--7---77----9---99----9h11----------9-----9--9-----7--7--x-7-7--7-xx--7--7--x-9-9-999--||
A||--7---77----7---77----9-------------9h11--11-11----5--5--x-7-7--7-xx--5--5--x-7-7-777--||
E||--5---55-------------------------------------------------x-5-5--5-xx--------x----------||


Verse/Chorus
e||--5---55---0---00---2--2-x--4-4-444-xx-------x-5-5--5-xx--------x----------||
B||--5---55---0---00---2--2-x--6-6-666-xx-7--7--x-5-5--5-xx--7--7--x-9-9-999--||
G||--6---66\--1---11---2--2-x--4-4-444-xx-7--7--x-6-6--6-xx--7--7--x-9-9-999--||
D||--7---77\--2---22---4--4-x--6-6-666-xx-7--7--x-7-7--7-xx--7--7--x-9-9-999--||
A||--7---77\--2---22---4--4-x--4-4-444-xx-5--5--x-7-7--7-xx--5--5--x-7-7-777--||
E||--5---55---0---00---2--2-x-------------------x-5-5--5-xx--------x----------||


*Lyrics*

It doesn't matter what I say
So long as I sing with inflection
That makes you feel that I'll convey
Some inner truth of  vast reflection
But I've said nothing so far
And I can keep it up as long as it takes
And it don't matter who you are
If I'm doing my job, it's your resolve that breaks
Because the hook brings you back
I ain't tellin' you no lie
The hook brings you back
On that you can rely
There is something amiss
I am being insincere
In fact I don't mean any of this
Still my confession draws you near
To confuse the issue I refer
To familiar heroes from long ago
No matter how much Peter loved her
What made the Pan refuse to grow?
Was that the hook brings you back
I ain't telling you no lie
The hook brings you back
On that you can rely

*Harmonica*

Suck it in suck it in suck it in
If you're Rin Tin Tin or Anne Boleyn
Make a desperate move or else you'll win
And then begin
to see
What you're doing to me this MTV is not for free
It's so PC it's killing me
So desperately I sing to thee of love
Sure but also rage and hate and pain and fear of self
And I can't keep these feelings on the shelf
I tried, well no in fact I lied
Could be financial suicide but I've got too much pride inside
To hide or slide
I'll do as I'll decide and let it ride until I've died
And only then shall I abide this tide
Of catchy little tunes
Of hip three minute ditties
I wanna bust all your balloons
I wanna burn all of your cities to the ground
I've found I will not mess around
Unless I play then hey
I will go on all day hear what I say
I have a prayer to pray
That's really all this was
And when I'm feeling stuck and need a buck
I don't rely on luck because
The hook brings you back
I ain't tellin' you no lie
The hook...
On that you can rely

Tap to rate this tab
 
# A B C D E F G H I J K L M N O P Q R S T U V W X Y Z