Song name
# A B C D E F G H I J K L M N O P Q R S T U V W X Y Z

Blues Traveler - Carolina Blues tab

E------------------0-----------------------------|
B------------------0-----------------------------|
G--------1---0h1---------------------------------|
D--------2---------------------------------------|
A--------2---------------------------------------|
e---3p0------------------------------------------|

That's the first part of the intro and then there's...

E----------------------------------------------------------------------------------|
B---3s5--3s5-3p0------------------------3s5-3s5-3p0--------------------------------|
G----------------2p0--------------------------------2p0---2p0 0 2p0-0-2p0----1-----|
D---------------------2s4-2s4-2p0--------------------------------------------2-----|
A---------------------------------2p0----------------------------------------2-----|
e----------------------------------------------------------------------------------|

And then it basically starts all over, mess around with that and you'll get it.
Tap to rate this tab
# A B C D E F G H I J K L M N O P Q R S T U V W X Y Z