Song name
# A B C D E F G H I J K L M N O P Q R S T U V W X Y Z

Blues - All Rise tab

Help us improve GuitareTab! Take a short survey!
                    Allrise_blue     (INTRO TABS)                

this is 100% correct and you will really enjoy that...............
                                                                          
E||-------8----9s10----8--6--|-----------3---1-----6--|
B||--8-----------------------|--8---------------4-----|
G||--------------------------|------------------------|
D||--------------------------|------------------------|
A||--------------------------|------------------------|
E||--------------------------|------------------------|


                                                                          
 --4----6----8----10--11--|--10----------------|-------8----9-10----8--6--|
 -------------------------|--------------------|--8-----------------------|
 -------------------------|--------------------|--------------------------|
 -------------------------|--------------------|--------------------------|
 -------------------------|--------------------|--------------------------|
 -------------------------|--------------------|--------------------------|


                                                                       
 --------------------6--|--4----6----8----10--11--|--10----------------|
 --8--------8--6--------|-------------------------|--------------------|
 -----------------8-----|-------------------------|--------------------|
 -----------------------|-------------------------|--------------------|
 -----------------------|-------------------------|--------------------|
 -----------------------|-------------------------|--------------------|


please send comments at bhattlalit@gmail.com
Related for All Rise tab