Blues - Blues Jammin tab

Blues  12 Bar Blues
__________________________________________________________________________________________________

Two Guitar   12 Bar Blues Jam



|            E            |            E          |            E           |            E
[Guitar 1]
|-------------------------------------------------|-----------------------------------------------|
|-------------------------------------------------|-----------------------------------------------|
|-------------------------------------------------|-----------------------------------------------|
|-------------------------------------------------|-----------------------------------------------|
|--------------2--2--4--4--5--5--4--4--2--2-------|-------------2--2--4--4--5--5--4--4--2--2------|
|--0--0--4--4--------------------------------4--4-|-0--0--4--4--------------------------------4--4|

[Guitar 2]
|-------------------------------------------------|-----------------------------------------------|
|-------------------------------------------------|-----------------------------------------------|
|-------------------------------------------------|-----------------------------------------------|
|-------------------------------------------------|-----------------------------------------------|
|--2--2--4--2--2--2--4--2--2--2--4--2--2--2--4--2-|-2--2--4--2--2--2--4--2--2--2--4--2--2--2-4--2|
|--0--0--0--0--0--0--0--0--0--0--0--0--0--0--0--0-|-0--0--0--0--0--0--0--0--0--0--0--0--0--0--0--0|



|            A            |            A          |            E           |            E
[Guitar 1]
|-------------------------------------------------|-----------------------------------------------|
|-------------------------------------------------|-----------------------------------------------|
|-------------------------------------------------|-----------------------------------------------|
|--------------2--2--4--4--5--5--4--4--2--2-------|-----------------------------------------------|
|--0--0--4--4--------------------------------4--4-|-------------2--2--4--4--5--5--4--4--2--2------|
|-------------------------------------------------|-0--0--4--4--------------------------------4--4|

[Guitar 2]
|-------------------------------------------------|-----------------------------------------------|
|-------------------------------------------------|-----------------------------------------------|
|-------------------------------------------------|-----------------------------------------------|
|--2-2--4-2-2-24--2--2--2-4--2-2--2--4--2--|-----------------------------------------------|
|--0-0-0-0--0-00-0-0-0-0-0-0-0-0-0--|-2--2--4--2--2--2--4--2--2--2--4--2--2--2-4-2-|
|-------------------------------------------------|-0--0--0--0--0--0--0--0--0--0--0--0--0-0-0-0-|



|            B            |            A          |            E           |            B
[Guitar 1]
|-------------------------------------------------|-----------------------------------------------|
|-------------------------------------------------|-----------------------------------------------|
|-------------------------------------------------|-----------------------------------------------|
|--------1--1--4--4--1--1--------------2--2-------|---------------------------4--4--4--4--4-4----|
|--2--2--------------------0--0--4--4--------4--4-|-------------2--2----------2--2--2--2-2-2----|
|-------------------------------------------------|-0--0--4--4--------4--4------------------------|

[Guitar 2]
|-------------------------------------------------|-----------------------------------------------|
|-------------------------------------------------|-----------------------------------------------|
|-------------------------------------------------|-----------------------------------------------|
|------------------------2--2--4-2--2--2--4--2---|---------------------------2--2--2--2--2--2----|
|9--9--11-9--9--911-9--0--0--0--0--0--0-0--0---|-2--2--4--2--2--2--4--2----4--4--4--4--4--4---|
|7--7--7--7--7--7--7-7----------------------------|-0--0--0--0--0--0--0--0------------------------|








FB:hitlerinski@rocketmail.com                                                            
                                                 twitter.com/iamsirhitler
hitlerinski07.multiply.com                                                               
                                              guitar 09287013683 lessons
Tap to rate this tab
 
# A B C D E F G H I J K L M N O P Q R S T U V W X Y Z