Song name
# A B C D E F G H I J K L M N O P Q R S T U V W X Y Z

Blues - 12 Bar Blues tab

If you don't understand, message me for further and more specific instructions!

-Victoria Duffield

*= hook string
**=slide
***= Repeat

12 Bar Blues. PALM MUTE!!!

E|--------------------------|--------------------------|
B|--------------------------|--------------------------|
G|--------------------------|--------------------------|
D|--------------------------|--------------------------|
A|----7---7-7--7-7--7-7--7--|----7---7-7--7-7--7-7--7--|
E|----5---5-5--5-5--5-5--5--|----5---5-5--5-5--5-5--5--|

E|--------------------------|--------------------------|
B|--------------------------|--------------------------|
G|--------------------------|--------------------------|
D|----7---7-7--7-7--7-7--7--|----7---7-7--7-7--7-7--7--|
A|----5---5-5--5-5--5-5--5--|----5---5-5--5-5--5-5--5--|
E|--------------------------|--------------------------|

E|--------------------------|--------------------------|
B|--------------------------|--------------------------|
G|--------------------------|--------------------------|
D|--------------------------|--------------------------|
A|----7---7-7--7-7--7-7--7--|----7---7-7--7-7--7-7--7--|
E|----5---5-5--5-5--5-5--5--|----5---5-5--5-5--5-5--5--|

E|--------------------------|--------------------------|
B|--------------------------|--------------------------|
G|--------------------------|--------------------------|
D|----7---7-7--7-7--7-7--7--|----7---7-7--7-7--7-7--7--|
A|----5---5-5--5-5--5-5--5--|----5---5-5--5-5--5-5--5--|
E|--------------------------|--------------------------|

E|--------------------------|--------------------------|
B|--------------------------|--------------------------|
G|--------------------------|--------------------------|
D|----9---9-9--9-9--9-9--9--|----7---7-7--7-7--7-7--7--|
A|----7---7-7--7-7--7-7--7--|----5---5-5--5-5--5-5--5--|
E|--------------------------|--------------------------|


Blues turn-around

E|---|--------------------------------------------------|
B|---|--------------------------------------------------|
G|---|--------------------------------------------------|
D|---|--------------------------------------------------|
A|---|------------------------3*0-----------------------|
E|-0-|-5--5-3--3-2--2-1--1-0-------0-3-0-3**5-----------|

Scale for backup music

A Pentatonic Scale

E|-------------------------------------5---8-----------| ***
B|------------------------------5---8------------------|
G|-----------------------5---7-------------------------|
D|----------------5---7--------------------------------|
A|---------5---7---------------------------------------|
E|--5---8----------------------------------------------|

Victoria Duffield @ victoriaduffield.com
Tap to rate this tab
# A B C D E F G H I J K L M N O P Q R S T U V W X Y Z