Song name
# A B C D E F G H I J K L M N O P Q R S T U V W X Y Z

Blues - Blues Jammin tab

blues guitar


guitar 1
e----------------------------------------------------------------------------|
b----------------------------------------------------------------------------|
g----------------------------------------------------------------------------|
d----------------------------------------------------------------------------|
a--2----2-4----2-2----2-4----2-2----2-4----2-2----2-4------------------------|
e--0----0-0----0-0----0-0----0-0----0-0----0-0----0-0------------------------|
   (repeat)

guitar 2
e-3p0---------------0---0---0------------------------------------------------|
b---------3p0---------2---2--------------------------------------------------|
g---------------3/4-------------3\2--0---------------------------------------|
d----------------------------------------2p0---------------------------------|
a----------------------------------------------------------------------------|
e----------------------------------------------------------------------------|

guitar 1
e----------------------------------------------------------------------------|
b----------------------------------------------------------------------------|
g----------------------------------------------------------------------------|
d----------------------------------------------------------------------------|
a--2----2-4----2-2----2-4----2-2----2-4----2-2----2-4------------------------|
e--0----0-0----0-0----0-0----0-0----0-0----0-0----0-0------------------------|


guitar 2
e-------------------------------------------------------------------------|
b-------5--7(bend)--5----7----5-------------------------------------------|
g---4/6--------------------6----------------------------------------------|
d-------------------------------------------------------------------------|
a-------------------------------------------------------------------------|
e-------------------------------------------------------------------------|
tabed by eli dangerfield my first tab
Tap to rate this tab
# A B C D E F G H I J K L M N O P Q R S T U V W X Y Z