Song name
# A B C D E F G H I J K L M N O P Q R S T U V W X Y Z

Bluetones - A Parting Gesture tab

                     A PARTING GESTURE BY THE BLUETONES


TABBED BY JAMES CAULFIELD
SOUNDS GOOD TO ME, HAMMER ON THE THIRD FRET ON THE D STRING WITH YOU FOURTH FINGER(BABY 
WEN U PLAY THE C SOMTIMES, LISTIN TO THE SONG YOU'LL KNO WAT I MEAN

intro
C G F G C x2


RIFF 1
E-----------------------------------------------------------------|
B-----------------------------------------------------------------|
G-----------------------------------------------------------------|
D-----------------------------------------------------------------|
A--3s5-3 ---------------------------------------------------------|
E---------5---3---0----3------------------------------------------|


VERSE 1

C
If you go away then
G              F          G       C    RIFF 1
Don't you come back round here no more
C
And if you make the move then
G                    F          G    C
Don't expect to come home to an open door

RIFF 2
E----------------------------------------------------------|
B---5------------6p5---------------------------------------|
G-----------5----------7--5--4-----------------------------|
D------5h7-------------------------------------------------|
A----------------------------------------------------------|
E----------------------------------------------------------|

CHORUS
F                G           Am       F
I'm not the same person I was a year ago
G                                           C    RIFF 1
You cut me deeply and the scars still show


VERSE 2

C                                   G           F
You've walked between the raindrops for far too long
G                        C      RIFF 1
You're gonna get what's yours
C
And if you go away then
G              F          G       C          RIFF 2
Don't you come back round here no more

CHORUS

F                G           Am       F
I'm not the same person I was a year ago
G
You cut me deeply and the scars still show

OUTRO

C                      Dm            F           Fm          C
You make me act like a fool over you and now you drive me away
C                      Dm            F           Fm          C
You make me act like a fool over you and now you drive me away
C                      Dm            F           Fm          C
You make me act like a fool over you and now you drive me away
  C                    Dm             F            Bb   B   C
                                     And now you drive me away.
Tap to rate this tab
 
# A B C D E F G H I J K L M N O P Q R S T U V W X Y Z