Guitaretab - guitar tabs
Song name
# A B C D E F G H I J K L M N O P Q R S T U V W X Y Z
Home / B / Blur / Good Song tab

Blur - Good Song tab

Damon does not play this song with regular open chords, as can
be seen on many live performances of this song. Check out
some in Youtube, for example the Jonathan Ross performance.
So this tab is basically a hundred and ten percent correct.

http://www.youtube.com/watch?v=ahlymAq5ZjM

I reckon that the GuitarPro-versions of this song has the correct
lead guitar and so on parts, but the rhytmn guitar parts that
Damon plays are wrong in them.

So I just thought I'd post my own tab of this version, with
the correct rhytmn guitar parts. (My first tab too here.)

Here we go:

The intro is played by the lead guitarist, and it is the main
"solo"-riff that you can hear on the verses and so on. But as I said earlier, I'm just 
what Damon plays.

Intro/verse

You can figure out the rhytmn by yourself.

e ----------------------------------------|
B ----------------------------------------|
G -9---/--1--/--2-------------------------|
D -10--/--2--/--3-------------------------|
A -10--/--2--/--3-------------------------|
E ----------------------------------------|

Waiting, got no town to
Hide in, the country's got
a hold of my
[ Tab from: http://www.guitaretab.com/b/blur/122436.html ]
e ----------------------------------------|
B ----------------------------------------|
G -6--/--7--/-----4-----------------------|
D -7--/--8--/-x2--5-----------------------|
A -7--/--8--/-----5-----------------------|
E ----------------------------------------|

Soul. TV's dead. and there
Ain't no war in my head and
You seem very beautiful to me

e ----------------------------------------|
B ----------------------------------------|
G -9---/--1--/--2-------------------------|
D -10--/--2--/--3-------------------------|
A -10--/--2--/--3-------------------------|
E ----------------------------------------|

Sleeping, but my work's not done.
I could be lying on an atom bomb.

e ----------------------------------------|
B ----------------------------------------|
G -6--/--7--/-----4-----------------------|
D -7--/--8--/-x2--5-----------------------|
A -7--/--8--/-----5-----------------------|
E ----------------------------------------|

I'll take care, because I know you'll be there
and you seem very beautiful to me.

e ----------------------------------------|
B ----------------------------------------|
G -9---/--1--/--2-------------------------|
D -10--/--2--/--3-------------------------|
A -10--/--2--/--3-------------------------|
E ----------------------------------------|

Itís the rest of my life
Just rolling and rolling
The picture in my pocket
Looks like you
Itís the rest of my life
Just rolling rolling rolling
Weíre all...


--------------

There is the whole song. Hope you enjoy playing
this song. Cheers, Oliver.

And please do comment, this is my first tab.
Related for Good Song tab