Song name
# A B C D E F G H I J K L M N O P Q R S T U V W X Y Z

Blur - Brothers And Sisters tab

-------------------------------------------------------------------------------
			     BROTHERS AND SISTERS - Blur
-------------------------------------------------------------------------------
Tabbed by: TomleHat
Email: thom25j@yahoo.co.uk

Tuning: Standard

INTRO:
e|-------------------------------|
B|-------------------------------|
G|-------------------------------|
D|-------------------------------|
A|-6h8---------6-------6---------|
E|---------6/8-----6/8-----4---1-|

MAIN RIFFS: (both riffs are definitely played like this but there is only 
one note difference, so you might just want to play one variation)
e|----------------------------|
B|----------------------------|
G|----------------------------|
D|-------3------3---3---------|
A|--------------------3-------|
E|-1---1------1---1------4--1-|

e|--------------------------|
B|--------------------------|
G|--------------------------|
D|-------3------3-----------|
A|------------------3-------|
E|-1---1------1---1----4--1-|

CHORUS:
e|---------------------------------------------|
B|---------------------------------------------|
G|---------------------------------------------|
D|-----3-----1-----------------3-----1---------|
A|---------3---3-1-----------------3---3-1-----|
E|-1---------------4-1-----1---------------4-1-|

e|---------------------------------------------------|
B|---------------------------------------------------|
G|---------------------------------------------------|
D|-----3-----1--------------------3------3-----------|
A|---------3---3-1---------------------------3-------|
E|-1---------------4-1------1---1------1---1----4--1-|

OUTRO:
e|-----------------------------------------------------------------|
B|-----------------------------------------------------------------|
G|-----------------------------------------------------------------|
D|-----------------------------------------------------------------|
A|-------------------------------------------------6-6-6-6-6-7-7-7-|
E|-4-4-4-4-4-4-4-4-6-6-6-6-6-6-7-7-8-8-8-8-8-8-8-8-----------------|


| /  slide up
| h  hammer-on
===============================================================================
Tap to rate this tab
# A B C D E F G H I J K L M N O P Q R S T U V W X Y Z