Guitaretab - guitar tabs
Song name
# A B C D E F G H I J K L M N O P Q R S T U V W X Y Z

Blur - Woo Hoo tab

Tuning: 1/2 Step Down (Eb Ab Db Gb Db Eb)
This is the EASIEST freakin' song anyone could play EVER!!!

Intro:
eb/----7-7-7-xx-5-5-5-xx-9-9-12-14-14-14-14-/
Bb/----6-6-6-xx-4-4-4-xx-8-8-11-13-13-13-13-/
Gb/----4-4-4-xx-2-2-2-xx-6-6-9-11-11-11-11--/
Db/-----------------------------------------/
Ab/-----------------------------------------/
Eb/-----------------------------------------/
[ Tab from: http://www.guitaretab.com/b/blur/182162.html ]
eb/----7-7-xx-5-5-5-xx-9-9-12-14-14-14-14-/
Bb/----6-6-xx-4-4-4-xx-8-8-11-13-13-13-13-/
Gb/----4-4-xx-2-2-2-xx-6-6-9-11-11-11-11--/
Db/---------------------------------------/
Ab/---------------------------------------/
Eb/---------------------------------------/

Main Riff:(with distortion)
eb/----7-7-7-xx-5-5-5-xx-9-9-12-14-14-14-14-/
Bb/----6-6-6-xx-4-4-4-xx-8-8-11-13-13-13-13-/
Gb/----4-4-4-xx-2-2-2-xx-6-6-9-11-11-11-11--/
Db/-----------------------------------------/
Ab/-----------------------------------------/
Eb/-----------------------------------------/

The rest is up to the bassist.
Related for Woo Hoo tab
Advertisement will be closed in 10 seconds