Song name
# A B C D E F G H I J K L M N O P Q R S T U V W X Y Z

Blur - Beetlebum tab

---------blur-----------|
-----beetlebum----------|


e----------|   x4
b----------|
g----------|
d----------|
a----------|
E--12/5-5--|

e----------|   x4
b----------|
g----------|
d----------|
a----------|
E--12/8-8--|

e----------|  x4
b----------|
g----------|
d----------|
a----------|
E--12/1-1--|

e----------|  x3
b----------|
g----------|
d----------|
a----------|
E--12/3-3--|

e----------|
d----------|
g----------|
d----------|
a----------|
E--6-6-6---|


repeat it


i got this tab from a magazine, i`ve never heard the song before, but i can play it and 
tune sounds fine, so enjoy
Tap to rate this tab
# A B C D E F G H I J K L M N O P Q R S T U V W X Y Z