Song name
# A B C D E F G H I J K L M N O P Q R S T U V W X Y Z

Blur - Chinese Bombs tab

-----------------------------------------------------------------------------
			     chinese bombs - blur
-----------------------------------------------------------------------------
Tabbed by: david
Email: thischarmingman13@gmail.com

Tuning: Standard

     (Opening riff, repeats until :19)
e|---------------------------------------------------------------------------|
B|---------------------------------------------------------------------------|
G|---------------------------------------------------------------------------|
D|-------6-----11-10-9-----------6------9--8--7------------------------------|
A|-------6-.-.-11-10-9-----------6-.-.--9--8--7------------------------------|
E|-4--4--------9--8--7----4--4----------7--6--5------------------------------|

e|----------------------------------------------------------------------------|
B|----------------------------------------------------------------------------|
G|-----------repeat-1x----------3---3-3---3---3--3----------------------------|
D|--6---6---6-----3----3---3----3---3-3---3---3--3---6---6---6-----3----3---3-|
A|--6---6---6-----3----3---3----1-.-1-1-.-1-.-1--1---6---6---6-----3----3---3-|
E|--4-.-4-.-4-----1--.-1-.-1-------------------------4-.-4-.-4-----1--.-1-.-1-|

e|---------------------------------------------------------------------------|
B|-hold----------------------------------------------------------------------|
G|---------------------------------------------------------------------------|
D|--8-----10-10---10-10---10-10---10-10--------------------------------------|
A|--8-----10-10---10-10---10-10---10-10--------------------------------------|
E|-/6----/8--8---/8--8---/8--8---/8--8---------------------------------------|

Those 2 parts are the whole song, if i missed something lemme know

| /  slide up
| \  slide down
| h  hammer-on
| p  pull-off
| ~  vibrato
| +  harmonic
| .  Mute note
=============================================================================
Tap to rate this tab
 
# A B C D E F G H I J K L M N O P Q R S T U V W X Y Z