Song name
# A B C D E F G H I J K L M N O P Q R S T U V W X Y Z

Blur - Beetlebum tab

Blur
Beetlebum

tabbed by Stoneman
17/09/09


i hope this is a useful insight as to what both guitars are doing throughout the song.
it's not all that complicated, which makes me wonder how the other tabs managed to fall 
of the mark. anyway, turn up your drive,
and slap on a bit of echo on your electric to replicate the guitar sound on the record.

timing 4/4

Intro - Electric Guitar

e----------------------------|
B----------------------------|
G----------------------------|
D--xxxx-xxxx-xxxx-xxxx-x-----|
A--xxxx-xxxx-xxxx-xxxx-x-----|
E--xxxx-xxxx-xxxx-xxxx-x-12\-|

e------------------------------------------|
B------------------------------------------|
G------------------------------------------|
D------------------------------------------|
A--777-------777-------777-------777-------|
E--555--12\--555--12\--555--12\--555--12\--|

Verse -  Electric Guitar


A5
e------------------------------------------|
B------------------------------------------|
G------------------------------------------|
D------------------------------------------|
A--777-------777-------777-------777-------|
E--555--12\--555--12\--555--12\--555--12\--|

C5
e--------------------------------------------------------------|
B--------------------------------------------------------------|
G--------------------------------------------------------------|
D--------------------------------------------------------------|
A--10-10-10-------10-10-10-------10-10-10--------10-10-10------|
E--8--8--8---12\--8--8--8---12\---8--8--8---12\--8--8--8---7\--|

F5
e----------------------------------|
B----------------------------------|
G----------------------------------|
D----------------------------------|
A--333------333------333------333--|
E--111--7\--111--7\--111--7\--111--|

   G5                     A#5
e--------------------------------|
B--------------------------------|
G--------------------------------|
D--------------------------------|
A--555------555------555--88888--|
E--333--7\--333--7\--333--66666--|


Pre Chorus


  A5
E-17-17-17-17-17-17-17-17--17-|
B-14-14-17-17-17-17-17-17--17-|
G-14-14-14-14-14-14-14-14--14-|
D-14-14-14-14-14-14-14-14--14-|
A-0--0--0--0--0--0--0--0---0--|
E-----------------------------|

Verse - Acoustic (Barr Chords)


   A                  C
e--5555555555555555---8-8-8-8-8-8-8-8-8-8-8-8-8-8-8-8--|
B--5555555555555555---8-8-8-8-8-8-8-8-8-8-8-8-8-8-8-8--|
G--6666666666666666---9-9-9-9-9-9-9-9-9-9-9-9-9-9-9-9--|
D--7777777777777777--10101010101010101010101010101010--|
A--7777777777777777--10101010101010101010101010101010--|
E--5555555555555555---8-8-8-8-8-8-8-8-8-8-8-8-8-8-8-8--|


  F                 G            A#    A
e-1111111111111111--333333333333-6666--55555555-5--|
B-1111111111111111--333333333333-6666--55555555-5--|
G-2222222222222222--444444444444-7777--66666666-6--|
D-3333333333333333--555555555555-8888--77777777-7--|
A-3333333333333333--555555555555-8888--77777777-7--|
E-1111111111111111--333333333333-6666--55555555-5--|

Chorus - Both guitars


"and when she lets me slip away"


   C        G          Am       F         Am       F       Fm
e--3-3-333--3-3-3-333--5-5-555--1-1-1-11--5-5-555--1-1-111--1-1-111--|
B--5-5-555--3-3-3-333--5-5-555--1-1-1-11--5-5-555--1-1-111--1-1-111--|
G--5-5-555--4-4-4-444--5-5-555--2-2-2-22--5-5-555--2-2-222--1-1-111--|
D--5-5-555--5-5-5-555--7-7-777--3-3-3-33--7-7-777--3-3-333--3-3-333--|
A--3-3-333--5-5-5-555--7-7-777--3-3-3-33--7-7-777--3-3-333--3-3-333--|
E-----------3-3-3-333--5-5-555--1-1-1-11--5-5-555--1-1-111--1-1-111--|

Outro - Electric Guitar

e------5----------------------------|
B--/5-----5~----/5------------------|
G--------------------5---4-2--------|
D-----------------------------------|
A-----------------------------5--3--|
E-----------------------------------|

Outro - Acoustic Guitar


"He's on, he's on, he's on it"

   A                  C
e--5555555555555555---8-8-8-8-8-8-8-8-8-8-8-8-8-8-8-8--|
B--5555555555555555---8-8-8-8-8-8-8-8-8-8-8-8-8-8-8-8--|
G--6666666666666666---9-9-9-9-9-9-9-9-9-9-9-9-9-9-9-9--|
D--7777777777777777--10101010101010101010101010101010--|
A--7777777777777777--10101010101010101010101010101010--|
E--5555555555555555---8-8-8-8-8-8-8-8-8-8-8-8-8-8-8-8--|


  F                 G            A#
e-1111111111111111--333333333333-6666--|
B-1111111111111111--333333333333-6666--|
G-2222222222222222--444444444444-7777--|
D-3333333333333333--555555555555-8888--|
A-3333333333333333--555555555555-8888--|
E-1111111111111111--333333333333-6666--|


its all there,
i'll leave it to you to figure out the order
Tap to rate this tab
 
# A B C D E F G H I J K L M N O P Q R S T U V W X Y Z