Song name
# A B C D E F G H I J K L M N O P Q R S T U V W X Y Z

Blur - Parklife tab

Help us improve GuitareTab! Take a short survey!
-------------------------------------------------------------------------------
			     Parklife - Blur
-------------------------------------------------------------------------------
Tabbed by: coolcatch
Email: coolcatch@hotmail.com

Tuning: EADGBE

Intro
e|---------------------------------------------------|
B|------------------------14-14---12-----------------|
G|--13----13-13---13-13---14-14---12-----------------|
D|--14----14-14---14-14---14-14---12-----------------|
A|--14----14-14---14-14------------------------------|
E|---------------------------------------------------|


Chorus

e|------------------------------|
B|------------------------------|
G|---------------3-4----3-4-----|
D|-------0-2-0---3-4----3-4-----|
A|---0-2-------0h1-2----1-2-----|
E|-0----------------------------|

Basically the whole song, the chorus is hard to hear, the 0 before the A# power chord
needs to be played mighty fast to fit in, but he definately does some hamming on/pulling off so
Related for Parklife tab