Song name
# A B C D E F G H I J K L M N O P Q R S T U V W X Y Z

Blur - Parklife tab

--------------------------------------------------------------------------------
     Parklife by Blur
--------------------------------------------------------------------------------
Standard Tuning:E A D G B E

Intro/Verse
e|------------------------------------------------------------------------------|
B|----------------------14-----12-----------------------------------------------|
G|-13~--13-13--13-13----14-X2--12-----------------------------------------------|
D|-14~--14-14--14-14----14-----12-----------------------------------------------|
A|-14~--14-14--14-14------------------------------------------------------------|
E|-12~--12-12--12-12------------------------------------------------------------|


 Chorus: 0:49
e|------------------------------------------------------------------------------|
B|------------------------------------------------------------------------------|
G|-------------8~-7-8-----------8--7/8------------------------------------------|
D|--------2p0--9~-8-9------2p0--9--8/9------------------------------------------|
A|-----0h2-----9~-8-9---0h2-----9--8/9------------------------------------------|
E|---0---------7~-6-7--0--------7--6/7------------------------------------------|
    "All the people, so many people..."

Chorus part two - chord progression: 0:55
     G              Em     D      C   C/B   A
e|---3--------3------0-----2------0----0----0------|------------------------------|
B|---3--------3------0-----3------1----1----2------|----------------------8--7----|
G|---0--------0------0-----2-X3---0----0----2-X3---|-----7---8--------------------|
D|---0--------0------2-----0------2----2----2------|-----8---9---------7----------|
A|---2--------x------2-----x------3----2----0------|-----8---9--------6-----------|
E|---3--------2------0-----x------0----0----0------|-----6---7-------7------------|
  "And they all go hand in hand, hand in through their, park-life"

*Strum these chords two times, except the chords stated X3 until |
Tap to rate this tab
 
# A B C D E F G H I J K L M N O P Q R S T U V W X Y Z