Song name
# A B C D E F G H I J K L M N O P Q R S T U V W X Y Z

Blur - Fools Day tab

Chords
C#m: X46654
A: 577655
B: 799877
G#m: 466444
F#m: 244222

Intro
    C#m
e|-4-4-4-x--|
B|-5-5-5-x--|
G|-6-6-6-x--| repeat
D|-6-6-6-x--|
A|-4-4-4-x--|
E|-x-x-x-x--|


Verses - play four times

     C#m           A    C#m       B             G#m  F#m
e|-x-4-4-4-4-x-4-|-5----44444-|-x-7-7-7-7-x-7-|-4----22222-|
B|-x-5-5-5-5-x-5-|-5----55555-|-x-7-7-7-7-x-7-|-4----22222-|
G|-x-6-6-6-6-x-6-|-6----66666-|-x-8-8-8-8-x-8-|-4----22222-|
D|-x-6-6-6-6-x-6-|-7----66666-|-x-9-9-9-9-x-9-|-6----44444-|
A|-x-4-4-4-4-x-4-|-7----44444-|-x-9-9-9-9-x-9-|-6----44444-|
E|-x-x-x-x-x-x-x-|-5----xxxxx-|-x-7-7-7-7-x-7-|-4----22222-|

First Break

The only chord for this part is A. The guitar part is hard to hear so this is the synth part:

e|-5-4-2-0-|---------|---------|---------|
B|---------|-4-2-0---|---------|---------|
G|---------|-------2-|-1---1-2-|-1---1-2-|
D|---------|---------|---4-----|---4-----|
A|---------|---------|---------|---------|
E|---------|---------|---------|---------|

Back to the verse

Second Break

The only chord for this part is C#m and the lead bit plays this:

e|-------------------------|
B|-------------------------|
G|-------------------------| repeat lots
D|-11-11-11-11-11-11-11-11-|
A|-------------------------|
E|-------------------------|

Then, just before the verse the guitar part decends as follows

e|-----------|
B|-----------|
G|-----------|
D|-----------|
A|-11-10-9-7-| be careful - the timings a bit odd
E|-----------|

Return to verse, then, after repeating the second break, play the outro

e|---------------------|                 |-------------|
B|---------------------|                 |-------------|
G|---------------------|                 |-------------|
D|-11p9-11p9-----------|                 |-----9-----9-|
A|-----------11-10-9-7-| play twice then |-7h9---7h9---|
E|---------------------|                 |-------------|

Then play the first bar again and repeat all four bars

Great song, thought it would be worth tabbing out, and since theres no lyrics on the web 
they’re written below - as best as I can hear.
Some bit arent quite right (both lyrics and tab) but itll do - if anyone works out 
better, just post it yourself :D

Wake up straight
Caught out by the sun
On the first day of April
Out of bed
Lord, it was a plane crash
But Im sure that I was dreaming
TV on
Off blast caffeine,  a science
Of submission again
Another day
On this little Island
Just about hangs on

Porridge done
I take my kid to school
Past the pound shop, Woolworths
Under bridge
Where the subway sees the daytime
And the west way flies by
Then on my bike
Down the Ladbroke Grove
To the forthcoming dramas
A studio
And a love of all sweet music
We just cant let go…

So meditate
On what weve all become
On a cold day in springtime
Civil War
Is what we all were born into
Raise your left hand, right sing
Dont capitulate
The forces of the market place
Theyre long departed
Consolidate
The love we bear together
On a cold day in springtime
Tap to rate this tab
# A B C D E F G H I J K L M N O P Q R S T U V W X Y Z