Song name
# A B C D E F G H I J K L M N O P Q R S T U V W X Y Z

Blur - Coffee And Tv tab

I know all of the song  except for the intro so I am going to skip that part and go to 
verse. sorry.  The timing is also off so put the chords into the song.

T=use thumb  ^=bend up to a certain note  *=just bend up to no note in particular  X=do 
play that string   0=open  ~=bend up and down fast

E--X-X-X-X----0-0--00-00----X-X--0-0--X-XX------------------------------------|
B--7-7-7-7----5-5--12-12----3-3--1-1--6-09------------------------------------|
G--8* 8*8*8----5-5--13-13----4-4--2-2--7-10-----------------------------------|
D--9-9-9-9----7-7--14-14----5-5--3-3--8-11------------------------------------|
A--9-9-9-9----7-7--14-14----5-5--3-3--8-11------------------------------------|
E-T7-7-7-7---T5-5--12-12---T3-3-T1-1--6-09------------------------------------|

play this throughout the verse then for the chorus play this

E---XX-XX--X---7-5-4-0---XX-XX---00--0-0--0-0-------------------------------|
A---09-09--7-------------09-09---12--5-5--7-7-------------------------------|
D---09-09--8---9-7-6-2---09-09---13--6-6--8-8-------------------------------|
G---11-11--9-------------11-11---14--7-7--9-9-------------------------------|
B---11-11--9-------------11-11---14--7-7--9-9-------------------------------|
E--T09-09--7-------------09-09---12--5-5--7-7-------------------------------|

and repeat that for all of the chorus'

For the guitar solo play this

E----------------------------------------------------------------------------|
B--12--------------17-15-------------------------------------17---------------|
G----11-13-14*------------14-15-10--------12-11-9-----------------------------|
D--------------14-------------------------------------------------------------|
A----------------------------------12^14----------9~-12~-14~------------------|
E-----------------------------------------------------------------------------|


Then it just fades out to this

E--XX--0-X------------------------------------------------------------------|
B--10--5-7------------------------------------------------------------------|
G--11--6-8------------------------------------------------------------------|
D--12--7-9------------------------------------------------------------------|
A--12--7-9------------------------------------------------------------------|
E-T10--5-7------------------------------------------------------------------|

Thank you for looking at my first tab I hope you have fun playing it.

-DJ Franky Franks
Tap to rate this tab
# A B C D E F G H I J K L M N O P Q R S T U V W X Y Z