Song name
# A B C D E F G H I J K L M N O P Q R S T U V W X Y Z

Blur - Song 2 tab

Help us improve GuitareTab! Take a short survey!
#---------------------------------------
#-- File created with Instab - http://w
ww.pconline.com/~smcarey/instab.html --#
#--------------------------------------

Author/Artist: blur
Title: song 2
Transcribed by: Saverain
Email: saverain@hotmail.com

This is what it sounds like to me and if you don't
 like it
E-mail me
you'll have to find the lyrics somewhere else sorry.
 I are not to good words
This should be right.  I think this is close to right
the verse for the intro it doesn't
 matter to me
I don't own this song I got a piece of it off of the
 internet so it may not be right.
It sounds better if your strum it to the far right of the 
guitar
v strum down
^strum up
m mute
D  TUNING


------|-----------------------------------------------|---
------|-------------------x-x-9-9/11-----------------|--
------|-10-10----8-8-8-x-x-8-8/10/12--12-12-12-|
------|-10-10----8-8-8-x-x-6-6/8-/10--10-10-10-|-
------|------------6-6-6-x-x-6-----/10--10---------|---
------|-----------------------------------------------|----
                             

-|--------------------------------------------------|-
-|-10-10-x-x-8-8--8-x-x-9-9/11-----------------|---
-|-10-10-x-x-8-8--8-x-x-8-8/10/12--12-12-12-|--
-|-10-10-x-x-8-8--8-x-x-6-6/8-/10--10-10-10--|-
-|-8--8---x-x-6-6--6-x-x-6-6/8-/10--10-10-10--|--
-|-----------------------------------------------------
                                                     

-|--------------------------------------------------------
-|--------------------------------------------------------
-|-5-5-5-5-3-3-3-3----------------------|--|-5----------|-3-3-3-3-1-1-1-1-6-6-8/10-10-10-0-|3x|-3--------
-|-3-3-3-3-1-1-1-1-6-6-8/10-10-10-0-|--|-3--8x--    
-|-3-3-3-3-1-1-1-1-6-6-8/10-10-10----|--|-3--------


----------------------------------------------------------
----------------------------------------------------------
--------------------3-3-3-3-3-3-3-3-3-3-3-3-3-3-3-3
-6-6-6-6-6-6-6-0-1-1-1-1-1-1-1-1-1-1-1-1-1-1-1-1-
-6-6-6-6-6-6-6-0-1-1-1-1-1-1-1-1-1-1-1-1-1-1-1-1-
-6-6-6-6-6-6-6-0-1-1-1-1-1-1-1-1-1-1-1-1-1-1-1-1
                                                                

---------------------------------|---|-------------------
---------------------------------|---|-------------------
---------------------------------|---|-------------------
-3---------3-3-6-6-8-/10-10-10-0-|2x-|-------------------
-3-6p3-6p3-3-3-6-6-8-/10-10-10-0-|---|-------------------
-3-5p3-5p3-3-3-6-6-8-/10-10-10-0-|---|-------------------
 v v   v   v ^                                                                


                                                                              

Related for Song 2 tab