Song name
# A B C D E F G H I J K L M N O P Q R S T U V W X Y Z

Blur - Out Of Time tab

-------------------------------------------------------------------------------
			     OUT OF TIME - Blur
-------------------------------------------------------------------------------
Tabbed by: Jarvillian
Email: Jarvillian@gmail.com
Tuning: Standard

INTRO:
Em Fmaj7

VERSE:
Em          Fmaj7
Where's the love song?

Em     G [Hold]
Set us free

         Am	 Em
Too many people, Down

           Fmaj7
Everything turning

    G
The wrong way round

And I don't know what love will be
But if we start dreaming now
Lord knows we'll never clear the clouds

CHORUS:
		Em	Fmaj7
And you've been so busy lately

	 Em		   Fmaj7
That you haven't found the time

   Em		Fmaj7
To open up your mind

Am		    Em
And watch the world spinning

F			G
Gently out of time

VERSE:
Feel the sunshine on your face
It's in a computer now
Gone are the future, way out in space

[CHORUS]

SOLO:
e|------------------------------------------------------------------|
B|-----------12-12-12---8-------------------------------------------|
G|--9---12------------9---9------------------9----------------------| x 2
D|--------------------------10-12-9------------12-10p9--------------|
A|----------------------------------10-12---------------------------|
E|------------------------------------------------------------------|

[CHORUS]

END

CHORDS:
Em [022000]
Fmaj7 [x03210]
G [320033]
Am [x02210]
F [133211]

| /  slide up
| \  slide down
| h  hammer-on
| p  pull-off
| ~  vibrato
| +  harmonic
| x  Mute note
===============================================================================
Tap to rate this tab
 
# A B C D E F G H I J K L M N O P Q R S T U V W X Y Z