Guitaretab - guitar tabs
Song name
# A B C D E F G H I J K L M N O P Q R S T U V W X Y Z

Blur - Song 2 tab

Intro

Guitar                                                      X2
E-----------------------------|------------------------------|
B-----------------------------|------------------------------|
G-----------------------------|-9-9---9-----11-11-11---------|
D----X---11-11--X-X---9-9-9---|-7-7---11----13-13-13---------|
A----X---9--9---X-X---7-7-7---|------------------------------|
E-----------------------------|------------------------------|
                                                            X4
E-----------------------------|------------------------------|
B-----------------------------|------------------------------|
G-----------------------------|------------------------------|
D-----------------------------|------------------------------|
A--4--4--4--4---2--2--2--2----|--7--7--9--9--9--9------------|
E--2--2--2--2---0--0--0--0----|--5--5--7--11-11-11-----------|

Bass                                                        X4
G-----------------------------|------------------------------|
D-----------------------------|------------------------------|
A-----------------------------|--------2--4--4--4------------|
E--2--2--2--2---0--0--0--0----|--5--5------------------------|

In the WooHoo part and chorus you may hear some little noises and I think they're something like this:

E---5------5-------5-----5--------5-------5------5-------5---|
B------------------------------------------------------------|
G------------------------------------------------------------|
D------------------------------------------------------------|
A------------------------------------------------------------|
E------------------------------------------------------------|

Verse

Guitar                                                      X4
E-----------------------------|------------------------------|
B-----------------------------|------------------------------|
G-----------------------------|-9-9---9-----11-11-11---------|
D----X---11-11--X-X---9-9-9---|-7-7---11----13-13-13---------|
A----X---9--9---X-X---7-7-7---|------------------------------|
E-----------------------------|------------------------------|

Chorus

Guitar                                                      X3
E-----------------------------|------------------------------|
B-----------------------------|------------------------------|
G-----------------------------|------------------------------|
D-----------------------------|------------------------------|
A--4--4--4--4---2--2--2--2----|--7--7---9---9---9---9--------|
E--2--2--2--2---0--0--0--0----|--5--5---7---11--11--11-------|

Bass                                                        X3
G-----------------------------|------------------------------|
D-----------------------------|------------------------------|
A-----------------------------|--------2--4--4--4------------|
E--2--2--2--2---0--0--0--0----|--5--5------------------------|

Then continue with this:

Guitar
E-----------------------------|------------------------------|
B-----------------------------|------------------------------|
G-----------------------------|------------------------------|
D-----------------------------|------------------------------|
A--4--4--4--4--4--4--4--4-----|--7--7--7--7--7--7--7--7------|
E--2--2--2--2--2--2--2--2-----|--5--5--5--5--5--5--5--5------|

Bass                                                        
G-----------------------------|------------------------------|
D-----------------------------|------------------------------|
A-----------------------------|------------------------------|
E--2--2--2--2---2--2--2--2----|--5--5--5--5--5--5--5--5------|

Guitar
E-----------------------------|------------------------------|
B-----------------------------|------------------------------|
G-----------------------------|------------------------------|
D--7--7--7--7--7--7--7--7-----|--7--7--7--7--7--7--7--7------|
A--5--5--5--5--5--5--5--5-----|--7--7--7--7--7--7--7--7------|
E--5--5--5--5--5--5--5--5-----|--5--5--5--5--5--5--5--5------|

Bass                                                        
G-----------------------------|--------------------7---------|
D-----------------------------|--------------7---------------|
A--5--5--5--5--5--5--5--5-----|--5--5--5--5------------------|
E-----------------------------|------------------------------|

Guitar                                                      X2
E-----------------------------|------------------------------|
B-----------------------------|------------------------------|
G-----------------------------|------------------------------|
D-----------------------------|------------------------------|
A--4--4--4--4---2--2--2--2----|--7--7--9--9--9--9------------|
E--2--2--2--2---0--0--0--0----|--5--5--7--11-11-11-----------|

Bass                                                        X2
G-----------------------------|------------------------------|
D-----------------------------|------------------------------|
A-----------------------------|--------2--4--4--4------------|
E--2--2--2--2---0--0--0--0----|--5--5------------------------|

After this go back to the verse and then again to the chorus.

Any doubts, suggestions, etc, contact me. juanfer_elduro@yahoo.com
[ Tab from: http://www.guitaretab.com/b/blur/25559.html ]
Related for Song 2 tab
Song 2 chords by Blur