Song name
# A B C D E F G H I J K L M N O P Q R S T U V W X Y Z

Blur - Parklife tab

-------------------------------------------------------------------------------
			     Parklife - Blur
-------------------------------------------------------------------------------
Tabbed by: jackofspades500

Tuning: Standard - E A D G B E

Intro/Verse:
e|--------------------9--9---7---|
B|-9-----9-9----9-9---10-10--8---|
G|-9-----9-9----9-9---9--9---7---|
D|-9-----9-9----9-9--------------| x14
A|-7-----7-7----7-7--------------|
E|-------------------------------|


Chorus:
e|-------------------------------------|
B|--------------------5----5-5---5-5---|
G|--------------------4----4-4---4-4---|
D|--------2h4p2-0-----2----2-2---2-2---| x2
A|-----2----------2--------------------|
E|-0--3--------------------------------|

e|-------------------------------------------------|
B|-------------------------------------------------|
G|-7---5---4---2-------------------------9-7-------|
D|-7---5---4---2---5---4---2-----------------7-----|
A|-5---3---2---0---5---4---2-----9---9-------------|
E|-----------------3---2---0---7---7---7-----------|


End Chorus 1:
e|--------------------9--9---7--------------------9------|
B|-9-----9-9----9-9---10-10--8---9-----9-9----9-9-10-9---|
G|-9-----9-9----9-9---9--9---7---9-----9-9----9-9-9--9---|
D|-9-----9-9----9-9--------------9-----9-9----9-9----9---| 
A|-7-----7-7----7-7--------------7-----7-7----7-7----7---|
E|-------------------------------------------------------|


Repeat Verse (x8)

Repeat Chorus


Bridge:
e|------------------------------|
B|-10--9------10p9-7h9---10--9--|
G|-9---9-----------------9---9--|
D|------------------------------| x4
A|------------------------------|
E|------------------------------|


Repeat Chorus (x2)

End on:
e|-----|
B|-9~--|
G|-9~--|
D|-9~--|
A|-7~--|
E|-----|

************************************
| h   hammer-on
| p   pull-off
| ~   vibrato
************************************

A fun and not overly difficult song to play
Listen to song for timing
Tap to rate this tab
 
# A B C D E F G H I J K L M N O P Q R S T U V W X Y Z