Song name
# A B C D E F G H I J K L M N O P Q R S T U V W X Y Z

Blur - Miss America tab

This is my first tab, so not sure if I'm doing it 100% right. Just to clarify, the 
thinnest 'e' string is at the top of the tab, with the thickest 'E' string at the bottom.

Also, I've just worked out this tab by ear and by messing around with the A minor 
pentatonic scale, so if its a bit rough, feel free to play around and find the right adjustments.

To create a sound authentic to the track, use 'chorus' effect.

This is the first verse, from "Miss America..." to "Don't ask me why", and is the SAME 
as all the other verses - I think so anyway:

|---------------------------------|
|-------5-------------------------|
|--7-7-7-7----4------------5------|
|-----------7-------5-5--7--------|
|---------------------------------|
|---------------------------------|

|---------------------------------|
|-------5-------------------------|
|--7-7-7-7----4------------5------|
|-----------7-------5-5--7--------|
|---------------------------------|
|---------------------------------|

This the FIRST chorus:

|-------------------------------|
|-----------------------6-------|
|--7----5-------7----5-----5-7--|
|----------7--------------------|
|-------------------------------|
|-------------------------------|

After the first chorus, you play the verse riff/sequence twice, and then continue 
playing into verse two.



This is used in the all the choruses (? chorii?) apart from the first:

|---------------------------------------------------------------------------|
|-----------------------6-------4/5-5-4/5-5-4/5-4/5---5-4/5-5-4/5-5-4/5-4/5-|
|--7----5-------7----5-----5------------------------------------------------|
|----------7----------------------------------------------------------------|
|---------------------------------------------------------------------------|
|---------------------------------------------------------------------------|

--------------------------------------|
-5-4/5-5-4/5-5-4/5-4/5---5---5--------|
------------------------------7--7-5--|
--------------------------------------|
--------------------------------------|
--------------------------------------|

This is the part from most of the choruses, and also is the outro played by Graham Coxon:
|---------------------------------------------------------------|
|--4/5-5-4/5-5-4/5-4/5---5-4/5-5-4/5-5-4/5-4/5---5---5----------|
|----------------------------------------------------7--7-5-----|
|---------------------------------------------------------------|
|---------------------------------------------------------------|
|---------------------------------------------------------------|
Tap to rate this tab
 
# A B C D E F G H I J K L M N O P Q R S T U V W X Y Z