Song name
# A B C D E F G H I J K L M N O P Q R S T U V W X Y Z

Blur - Beetlebum tab

#----------------------------------PLEASE NOTE--------------------------------#
#This file is the author's own work and represents their interpretation of the#
#song. You may only use this file for private study, scholarship, or research.#
#-----------------------------------------------------------------------------#
#-- File created with Instab - http://www.pconline.com/~smcarey/instab.html --#
#-----------------------------------------------------------------------------#

Author/Artist: Blur
Title: Beetlbum

X scratch note
/ slide up
\ slide down

Standard Tuning


-------|-x-x-x-x-|--|---------------|--|--------------------------------------|
-------|-x-x-x-x-|--|---------------|--|--------------------------------------|
-------|-x-x-x-x-|--|---------------|--|--------------------------------------|
-------|-x-x-x-x-|4x|---------------|8x|--------------------------------------|
-------|-x-x-x-x-|--|---------------|--|--------------------------------------|
-------|-x-x-x-x-|--|-12\--5--5--5--|--|--------------------------------------|
        Intro

-|-------------|--|-------------|--|------------|--|-----------|--|----------|
-|-------------|--|-------------|--|------------|--|-----------|--|----------|
-|-------------|--|-------------|--|------------|--|-----------|--|----------|
-|-------------|4x|-------------|4x|------------|4x|-----------|3x|-3-3-3-3--|
-|-------------|--|-------------|--|------------|--|-----------|--|-1-1-1-1--|
-|-12\-5--5--5-|--|-12\-8--8--8-|--|-7\-1--1--1-|--|-7\-3--3--3|--|-x-x-x-x--|
  Verse

-|-----x----------------x---------------x---------------x--------------------|
-|-----5----------------8---------------1---------------3--------------------|
-|-----6----------------9---------------2---------------4--------------------|
-|-----7----------------10--------------3---------------5--------------------|
-|-----x----------------x---------------x---------------x--------------------|
-|-----5----------------8---------------1---------------3--------------------|
  Verse change to full chords

------|-5--5--5--5--5--5--5--5--5--|------------------------------------------|
------|-x--x--x--x--x--x--x--x--x--|------------------------------------------|
------|-6--6--6--6--6--6--6--6--6--|------------------------------------------|
------|----------------------------|------------------------------------------|
------|----------------------------|------------------------------------------|
------|----------------------------|------------------------------------------|
       Prechorus

------|-x---x---x---x---x---x---x---|--|-------|------------------------------|
------|-1---0---1---1---1---1---1---|--|-------|------------------------------|
------|-0---0---2---2---2---2---1---|--|-------|------------------------------|
------|-x---x---2---3---2---3---3---|2x|-x-----|------------------------------|
------|-3---2---0---3---0---3---3---|--|-3-----|------------------------------|
------|-3---3---x---x---x---x---x---|--|-3-----|------------------------------|
      Chorus Chords

------|-------------------|--|------------------------------------------------|
------|-------------------|--|------------------------------------------------|
------|-------------------|--|------------------------------------------------|
------|-7---10---3---5--7-|--|------------------------------------------------|
------|-7---10---3---5--7-|--|------------------------------------------------|
------|-x---x----x---x--x-|--|------------------------------------------------|
      Outro G1 Chords

------|-------------------------------|--|------------------------------------|
------|-10-10-------------------------|--|------------------------------------|
------|-------9-9---------------------|--|------------------------------------|
------|-------------10-10-10-9-9------|--|------------------------------------|
------|-------------------------------|--|------------------------------------|
------|--------------------------10---|--|------------------------------------|
      Outro G2

------|-0---0----0---0---0-|--|-----------------------------------------------|
------|-5---x----1---3---5-|--|-----------------------------------------------|
------|-x---9----x---x---x-|--|-----------------------------------------------|
------|-7---10---3---5---7-|--|-----------------------------------------------|
------|-7---10---3---5---7-|--|-----------------------------------------------|
------|-x---x----x---x---x-|--|-----------------------------------------------|
      G1 Outro Chords Change
Tap to rate this tab
# A B C D E F G H I J K L M N O P Q R S T U V W X Y Z