Song name
# A B C D E F G H I J K L M N O P Q R S T U V W X Y Z

Blur - Song 2 chords

Highlighted       Show chord diagrams
All the intro is as simple as this this:

 B5    A5    D5    E5    F#5
-7-----5-----5-----7-----9---|
-7-----5-----5-----7-----9---|
-7-----5-----7-----9-----11--|
-9-----7-----7-----9-----11--|
-9-----7-----5-----7-----9---|
-7-----5-----5-----7-----9---|

B5 B5 | A5 A5 A5 | D5 D5 D5 | E5 F#5 F#5

-7-7-|--5-5-5--|--5-5-5--|-7-9--9---|
-7-7-|--5-5-5--|--5-5-5--|-7-9--9---|
-7-7-|--5-5-5--|--7-7-7--|-9-11-11--|
-9-9-|--7-7-7--|--7-7-7--|-9-11-11--|
-9-9-|--7-7-7--|--5-5-5--|-7-9--9---|
-7-7-|--5-5-5--|--5-5-5--|-7-9--9---|
Tap to rate this tab
 
# A B C D E F G H I J K L M N O P Q R S T U V W X Y Z