Song name
# A B C D E F G H I J K L M N O P Q R S T U V W X Y Z

Blur - Girls And Boys tab

Blur, Girls and boys                                        Drop C

Intro Lead and Rhythm

----------------------------------------------------|
----------------------------------------------------|
----------------------------------------------------|
----7---------7---------5---------3--------6---5----| x2
------(x8)------(x8)------(x8)------(x6)------------|
--7---------0---------5---------3--------7---5------|

Verse Lead and Rhythm

----------------------------------------------------|
-------------------------------------------4--3-----|
------------------------------------------5--4------|
----7---------7---------5---------3------6--5-------| x2
------(x8)------(x8)------(x8)------(x6)------------|
--7---------0---------5---------3-------------------|

--------------------------15\\-------------------------|
-------------------------------------------------4--3--|
-----6p5---------6p5--------------2-------(x3)--5--4---|
--77-----(x4)-00-----(x4)-----------2-3-2------6--5----|
--77----------00---------------------------------------|
--77----------00---------------------------------------|

Chorus Lead and Rhythm

--------------------------20\\-------------------------|
-------------------------------------------------4--3--|
-----6p5---------6p5--------------2-------(x3)--5--4---|
--77-----(x4)-00-----(x4)-----------2-3-2------6--5----|
--77----------00---------------------------------------|
--77----------00---------------------------------------|

--------------------------15\\-------------------------|
-------------------------------------------------4--3--|
-----6p5---------6p5--------------2-------(x3)--5--4---|
--77-----(x4)-00-----(x4)-----------2-3-2------6--5----|
--77----------00---------------------------------------|
--77----------00---------------------------------------|

Pre Verse Lead

--17h18-20(x4)--17h18-17-(x4)--17h18---------17h18-20-(x4)--|
-------------------------------------20-(x4)----------------|
------------------------------------------------------------|
------------------------------------------------------------|
------------------------------------------------------------|
------------------------------------------------------------|

Pre Verse Rhythm

--------------------------20\\-------------------------|
-------------------------------------------------4--3--|
-----6p5---------6p5--------------2-------(x3)--5--4---|
--77-----(x4)-00-----(x4)-----------2-3-2------6--5----|
--77----------00---------------------------------------|
--77----------00---------------------------------------|

Verse 2 Lead and Rhythm

--------------------------15\\-------------------------|
-------------------------------------------------4--3--|
-----6p5---------6p5--------------2-------(x3)--5--4---|
--77-----(x4)-00-----(x4)-----------2-3-2------6--5----|
--77----------00---------------------------------------|
--77----------00---------------------------------------|

--------------------------20\\-------------------------|
-------------------------------------------------4--3--|
-----6p5---------6p5--------------2-------(x3)--5--4---|
--77-----(x4)-00-----(x4)-----------2-3-2------6--5----|
--77----------00---------------------------------------|
--77----------00---------------------------------------|

Chorus Lead and Rhythm

--------------------------15\\-------------------------|
-------------------------------------------------4--3--|
-----6p5---------6p5--------------2-------(x3)--5--4---|
--77-----(x4)-00-----(x4)-----------2-3-2------6--5----|
--77----------00---------------------------------------|
--77----------00---------------------------------------|

--------------------------20\\-------------------------|
-------------------------------------------------4--3--|
-----6p5---------6p5--------------2-------(x3)--5--4---|
--77-----(x4)-00-----(x4)-----------2-3-2------6--5----|
--77----------00---------------------------------------|
--77----------00---------------------------------------|

Pre Chorus 2 Lead

--17h18-20(x4)--17h18-17-(x4)--17h18---------17h18-20-(x4)--|
-------------------------------------20-(x4)----------------|
------------------------------------------------------------|
------------------------------------------------------------|
------------------------------------------------------------|
------------------------------------------------------------|

Pre Chorus 2 Rhythm

--------------------------20\\-------------------------|
-------------------------------------------------4--3--|
-----6p5---------6p5--------------2-------(x3)--5--4---|
--77-----(x4)-00-----(x4)-----------2-3-2------6--5----|
--77----------00---------------------------------------|
--77----------00---------------------------------------|

Chorus 2 Lead

---------------------15\\-------------------|
--------------------------------------------|
--------------------------------------------|
----7---------7--------------3--------6---5-|
------(x8)------(x8)-----------(x6)---------|
--7---------0---------------3--------7---5--|

---------------------20\\--------------------|
---------------------------------------4--3--|
--------------------------------------5--4---|
----7---------7--------------3-------6--5----|
------(x8)------(x8)-----------(x6)----------|
--7---------0---------------3----------------|

Chorus 2 Rhythm

----------------------------------------------------|
----------------------------------------------------|
----------------------------------------------------|
----7---------7---------5---------3-------6---5-----|
------(x8)------(x8)------(x8)------(x6)------------|
--7---------0---------5---------3--------7---5------|

----------------------------------------------------|
-------------------------------------------4--3-----|
------------------------------------------5--4------|
----7---------7---------5---------3------6--5-------|
------(x8)------(x8)------(x8)------(x6)------------|
--7---------0---------5---------3-------------------|

Final Chorus Lead

--17h18-20(x4)--17h18-17-(x4)--17h18---------17h18-20-(x4)--|
-------------------------------------20-(x4)----------------|
------------------------------------------------------------|
------------------------------------------------------------| x4
------------------------------------------------------------|
------------------------------------------------------------|

Final Chorus Rhythm
--------------------------15\\-------------------------|
-------------------------------------------------4--3--|
-----6p5---------6p5--------------2-------(x3)--5--4---|
--77-----(x4)-00-----(x4)-----------2-3-2------6--5----|
--77----------00---------------------------------------|
--77----------00---------------------------------------|
                                                        x2
--------------------------20\\-------------------------|
-------------------------------------------------4--3--|
-----6p5---------6p5--------------2-------(x3)--5--4---|
--77-----(x4)-00-----(x4)-----------2-3-2------6--5----|
--77----------00---------------------------------------|
--77----------00---------------------------------------|
Tap to rate this tab
# A B C D E F G H I J K L M N O P Q R S T U V W X Y Z