Song name
# A B C D E F G H I J K L M N O P Q R S T U V W X Y Z

Blur - The Universal tab

Tabbed by: GuitarMan147 (Perry el Ornitorrinco...)

Basically, this is the sort of instrumental part of the song, which is
played by some sort of brass instrument, possibly a cornet. But anyway,
here it is.

Hope it helps :)



No Capo

e|----0-------4--0-------0--2------------------------------|
B|---------2----------2--------------------0-----2---------|
G|----------------------------------2-2-------2------------|
D|---------------------------------------------------------|
A|---------------------------------------------------------|
E|---------------------------------------------------------|



If you are doing the Capo 2 version of the song, you can play it like this:

(Relative to capo)

e|------------2--------------------------------------------|
B|----3----------3-------3--5------------------------------|
G|---------4----------4-------------0-0----2--0--4---------|
D|---------------------------------------------------------|
A|---------------------------------------------------------|
E|---------------------------------------------------------|
Tap to rate this tab
# A B C D E F G H I J K L M N O P Q R S T U V W X Y Z