Song name
# A B C D E F G H I J K L M N O P Q R S T U V W X Y Z

Blur - Colin Zeal tab

Intro and Verse (repeat until chorus)

e|-----------------------------------------------|
B|--6xx6xx-6-5-6xx6xx-6-5-6xx6xx-6-5-6xx6xx-6-5--|
G|--7xx7xx-7h5-7xx7xx-7h5-7xx7xx-7h5-7xx7xx-7h5--|
D|-----------------------------------------------|
A|-----------------------------------------------|
E|-----------------------------------------------|

Intro lead (with wah)

e|---------------------------------------|
B|---------------------------------------|
G|------2-0-------10-10-10-10-10-10-9-7--| (x4)
D|----------3-2-0-10-10-10-10-10-10\9-7--|
A|--0-3------------8--8--8--8--8--8\7-5--|
E|---------------------------------------|

Chorus

e|-----------3-3-333--1-1-111----------5--------|
B|-----------3-3-000--1-1-111----2-3-2---2-3-2--|
G|--4-4-444--0-0-000--2-2-222--2----------------| x2
D|--4-4-444--0-0-000--3-3-333--2----------------|
A|--2-2-222--2-2-222--3-3-333--0----------------|
E|-----------3-3-333----------------------------|

"he's pleased with himself"
e|------3-----3-----3-3---|
B|------3-----3-----3-3---|
G|--444-4-444-4-444-4-4-3-|
D|--444-5-444-5-444-5-5-3-|
A|--222-5-222-5-222-5-5-1-|
E|------------------------|

(repeat all)

Solo

e|----------------------------------5---------------------------------------------------|
B|--------------------5-3-----2-3-2---2-3-2------------------5-3---10b-10b-10b-10b-10b--|
G|------------------------2-4------------------------------------2----------------------|
D|--/9-9-9-7b-5-7-8-3-----------------------9-9-9-7b-5-7-8-3----------------------------|
A|------------------3--------------------------------------3----------------------------|
E|------------------1--------------------------------------1----------------------------|

(repeat chorus and play "he's pleased with himself" passage a number of times to end)
Tap to rate this tab
 
# A B C D E F G H I J K L M N O P Q R S T U V W X Y Z