Song name
# A B C D E F G H I J K L M N O P Q R S T U V W X Y Z

Blur - Stereotypes tab

Blur - Stereotypes

The pattern of the chord leading the verses and choruses is this:

Bm7add9

|-10--10--------|
|-10--10--------|
|--7---7--------|
|--9---9--------|
|--9---9--------|
|--7---7--------|

As this chord may be a little difficult for most players (such as me), I recommend 
using this variation of Bm7add9:

|-10--10--------|
|-10--10--------|
|--x---x--------|
|--9---9--------|
|--9---9--------|
|---------------|

Hope it will be helpful. Now on to the actual tab!


Intro:

|-10--10--------|-10--10--------|-10--10--------|-10--10--------|
|-10--10--------|-10--10--------|-10--10--------|-10--10--------|
|--7---7--------|--7---7--------|--7---7--------|--7---7--------|
|--9---9--------|--9---9--------|--9---9--------|--9---9--------|
|--9---9--------|--9---9--------|--9---9--------|--9---9--------|
|--7---7--------|--7---7--------|--7---7--------|--7---7--------|


Verse:

|-10--10----------------------|
|-10--10----------------------|
|--7---7---11-11-11-11-11-----|
|--9---9----------------------|
|--9---9----9--9--9--9--9---9-|
|--7---7--------------------7-| x6


|---------------------|-----------------|-10--10-----------------------|
|---------------------|-2-0-2-0-2-0-2-0-|-10--10-----------------------|
|-----4---4-----4---4-|-3-3-3-3-3-3-3-3-|--7---7---11-11-11-11-11------|
|-----6---6-----5---5-|-4-4-4-4-4-4-4-4-|--9---9-----------------------|
|-6-6-------5-5-------|-----------------|--9---9----9--9--9--9--9---9--|
|-4-4-------3-3-------|-----------------|--7---7--------------------7--|


|-10--10----------------------|---------------------|-----------------|
|-10--10----------------------|---------------------|-2-0-2-0-2-0-2-0-|
|--7---7---11-11-11-11-11-----|-----4---4-----4---4-|-3-3-3-3-3-3-3-3-|
|--9---9----------------------|-----6---6-----5---5-|-4-4-4-4-4-4-4-4-|
|--9---9----9--9--9--9--9---9-|-6-6-------5-5-------|-----------------|
|--7---7--------------------7-|-4-4-------3-3-------|-----------------|


Chorus:

|-----------------|
|-2-2-2-2-2-2-----|
|-2-2-2-2-2-2-----|
|-2-2-2-2-2-2-----|
|-0-0-0-0-0-0-----|
|-----------------|

|-----------------|-10--10----------------------|-10--10---------------------|
|-2-2-2-2-2-------|-10--10----------------------|-10--10---------------------|
|-2-2-2-2-2-------|--7---7---11-11-11-11-11-----|--7---7---11-11-11-11-11----|
|-2-2-2-2-2-------|--9---9----------------------|--9---9---------------------|
|-0-0-0-0-0-----0-|--9---9----9--9--9--9--9---9-|--9---9----9--9--9--9--9--9-|
|-----------2-2---|--7---7--------------------7-|--7---7-------------------7-|


|-10--10----------------------|-10--10-----------|
|-10--10----------------------|-10--10-----------|
|--7---7---11-11-11-11-11-----|--7---7---8-6-----|
|--9---9----------------------|--9---9---8-6-9-6-|
|--9---9----9--9--9--9--9---9-|--9---9-------9-6-|
|--7---7--------------------7-|--7---7-----------|


|-------------------|--------------------|
|-------------------|--------------------|
|-------------------|--------------------|
|-9-9-11-9----------|-9-9-11-9-----------|
|-7-7--7-7-9-9-11-9-|-7-7--7-7-9-9-11-9--|
|----------7-7--7-7-|----------7-7--7-7--|


|-----------------|-----------------| 
|-7-7-7-7-6-6-6-6-|-7-7-7-7-9-9-9-9-| 
|-6-6-6-6-6-6-6-6-|-7-7-7-7-9-9-9-9-| 
|-6-6-6-6-6-6-6-6-|-7-7-7-7-9-9-9-9-| 
|-4-4-4-4-4-4-4-4-|-5-5-5-5-7-7-7-7-| 
|-----------------|-----------------| 


Repeat verse, then second chorus:

|---------------|----------------|-10--10--------------------|
|-2-2-2-2-2-2---|-2-2-2-2-2------|-10--10--------------------|
|-2-2-2-2-2-2---|-2-2-2-2-2------|--7---7---11-11-11-11-11---|
|-2-2-2-2-2-2---|-2-2-2-2-2------|--9---9--------------------|
|-0-0-0-0-0-0---|-0-0-0-0-0----0-|--9---9---9--9--9--9--9--9-|
|---------------|-----------2-2--|--7---7------------------7-|


|-10--10----------------------|-10--10----------------------|
|-10--10----------------------|-10--10----------------------|
|--7---7---11-11-11-11-11-----|--7---7---11-11-11-11-11-----|
|--9---9----------------------|--9---9----------------------|
|--9---9----9--9--9--9--9---9-|--9---9----9--9--9--9--9---9-|
|--7---7--------------------7-|--7---7--------------------7-|


|-10--10-----------|-------------------|-------------------|-----------------|
|-10--10-----------|-------------------|-------------------|-7-7-7-7-6-6-6-6-|
|--7---7---8-6-----|-------------------|-------------------|-6-6-6-6-6-6-6-6-|
|--9---9---8-6-9-6-|-9-9-11-9----------|-9-9-11-9----------|-6-6-6-6-6-6-6-6-|
|--9---9-------9-6-|-7-7--7-7-9-9-11-9-|-7-7--7-7-9-9-11-9-|-4-4-4-4-4-4-4-4-|
|--7---7-----------|----------7-7--7-7-|----------7-7--7-7-|-----------------|


|-----------------|-10--10----------------------|-10--10----------------------|
|-7-7-7-7-9-9-9-9-|-10--10----------------------|-10--10----------------------|
|-7-7-7-7-9-9-9-9-|--7---7---11-11-11-11-11-----|--7---7---11-11-11-11-11-----|
|-7-7-7-7-9-9-9-9-|--9---9----------------------|--9---9----------------------|
|-5-5-5-5-7-7-7-7-|--9---9----9--9--9--9--9---9-|--9---9----9--9--9--9--9---9-|
|-----------------|--7---7--------------------7-|--7---7--------------------7-|


|-10--10----------------------|-10--10-----------|
|-10--10----------------------|-10--10-----------|
|--7---7---11-11-11-11-11-----|--7---7---8-6-----|
|--9---9----------------------|--9---9---8-6-9-6-|
|--9---9----9--9--9--9--9---9-|--9---9-------9-6-|
|--7---7--------------------7-|--7---7-----------|


Bridge:

|-------------------|--------------------|
|-------------------|--------------------|
|-------------------|--------------------|
|-9-9-11-9----------|-9-9-11-9-----------|
|-7-7--7-7-9-9-11-9-|-7-7--7-7-9-9-11-9--|
|----------7-7--7-7-|----------7-7--7-7--|


|----------3-3-3-3-|-2-2-2-2-2-2-2-2-|-2-2-2-2------|
|----------3-3-3-3-|-2-2-2-2-2-2-2-2-|-2-2-2-2------|
|----------4-4-4-4-|-3-3-3-3-3-3-3-3-|-3-3-3-3------|
|-9-9-11-9-5-5-5-5-|-4-4-4-4-4-4-4-4-|-4-4-4-4------|
|-7-7--7-7-5-5-5-5-|-4-4-4-4-4-4-4-4-|-4-4-4-4------|
|----------3-3-3-3-|-2-2-2-2-2-2-2-2-|-2-2-2-2------|


|-10--10--------|-10--10--------|----------------|-----------------|
|-10--10--------|-10--10--------|-2-2-2-2-2-2----|-2-2-2-2-2-------|
|--7---7--------|--7---7--------|-2-2-2-2-2-2----|-2-2-2-2-2-------|
|--9---9--------|--9---9--------|-2-2-2-2-2-2----|-2-2-2-2-2-------|
|--9---9--------|--9---9--------|-0-0-0-0-0-0----|-0-0-0-0-0-----0-|
|--7---7--------|--7---7--------|----------------|-----------2-2---|


|-10-10-10-10-10-10-10-10-10-10-10-10-10-10-10-10-|
|-10-10-10-10-10-10-10-10-10-10-10-10-10-10-10-10-|
|--9--9--9--9--9--9--9--9--9--9--9--9--9--9--9--9-|
|-------------------------------------------------|
|-------------------------------------------------|
|-------------------------------------------------|


|-10-10-10-10-10-10-10-10-10-10-10-10-10-10-10-10-|
|-10-10-10-10-10-10-10-10-10-10-10-10-10-10-10-10-|
|--9--9--9--9--9--9--9--9--9--9--9--9--9--9--9--9-|
|-------------------------------------------------|
|-------------------------------------------------|
|-------------------------------------------------|


Third chorus:

|----------------|-------------------------|-10--10----------------------|
|-2-2-2-2-2-2----|-----2-----2-----2-----2-|-10--10----------------------|
|-2-2-2-2-2-2----|-3b4---3b4-2-3b4-2-3b4-2-|--7---7---11-11-11-11-11-----|
|-2-2-2-2-2-2----|-------------------------|--9---9----------------------|
|-0-0-0-0-0-0----|-------------------------|--9---9----9--9--9--9--9---9-|
|----------------|-------------------------|--7---7--------------------7-|

|-10--10----------------------|-10--10----------------------|-10--10-----------|
|-10--10----------------------|-10--10----------------------|-10--10-----------|
|--7---7---11-11-11-11-11-----|--7---7---11-11-11-11-11-----|--7---7---8-6-----|
|--9---9----------------------|--9---9----------------------|--9---9---8-6-9-6-|
|--9---9----9--9--9--9--9---9-|--9---9----9--9--9--9--9---9-|--9---9-------9-6-|
|--7---7--------------------7-|--7---7--------------------7-|--7---7-----------|


|-------------------|-------------------|-----------------|-----------------|
|-------------------|-------------------|-7-7-7-7-6-6-6-6-|-7-7-7-7-9-9-9-9-|
|-------------------|-------------------|-6-6-6-6-6-6-6-6-|-7-7-7-7-9-9-9-9-|
|-9-9-11-9----------|-9-9-11-9----------|-6-6-6-6-6-6-6-6-|-7-7-7-7-9-9-9-9-|
|-7-7--7-7-9-9-11-9-|-7-7--7-7-9-9-11-9-|-4-4-4-4-4-4-4-4-|-5-5-5-5-7-7-7-7-|
|----------7-7--7-7-|----------7-7--7-7-|-----------------|-----------------|


Chorus repeat:

|-10--10----------------------|
|-10--10----------------------|
|--7---7---11-11-11-11-11-----|
|--9---9----------------------|
|--9---9----9--9--9--9--9---9-|
|--7---7--------------------7-|

|-10--10----------------------|-10--10----------------------|
|-10--10----------------------|-10--10----------------------|
|--7---7---11-11-11-11-11-----|--7---7---11-11-11-11-11-----|
|--9---9----------------------|--9---9----------------------|
|--9---9----9--9--9--9--9---9-|--9---9----9--9--9--9--9---9-|
|--7---7--------------------7-|--7---7--------------------7-|


|-10--10-----------|-------------------|
|-10--10-----------|-------------------|
|--7---7---8-6-----|-------------------|
|--9---9---8-6-9-6-|-9-9-11-9----------|
|--9---9-------9-6-|-7-7--7-7-9-9-11-9-|
|--7---7-----------|----------7-7--7-7-|


|-------------------|---------------------|
|-------------------|-7-7-7-7-6h7-7-6h7-7-|
|-------------------|-6-6-6-6-6---6-6---6-|
|-9-9-11-9----------|-6-6-6-6-6---6-6---6-|
|-7-7--7-7-9-9-11-9-|-4-4-4-4-4---4-4---4-|
|----------7-7--7-7-|---------------------|


|---------------7---|-----0-------------------|--------|
|-7-7-7-7-7-7s9---9-|-------2-0-----3---5---5-|-5s7----|
|-7-7-7-7-7---------|-----------3h4---4---6---|-6s8----|
|-7-7-7-7-7---------|---4---------------------|--------|
|-5-5-5-5-5---------|-------------------------|--------|
|-------------------|-2-----------------------|--------|
Tap to rate this tab
# A B C D E F G H I J K L M N O P Q R S T U V W X Y Z