Song name
# A B C D E F G H I J K L M N O P Q R S T U V W X Y Z

Blur - Swamp Song tab

Swamp Song
blur
13
Tabbed By: Saviano Perry (savianoperry)
smashingpumpkins11@gmail.com

Intro/ Verse:
()= Intro
|-(1)-3---3-5-6---6-5-6---6-5-3---3---|
|-(1)-3---3-5-6---6-7-8---8-7-5---5---|
|-(2)-4---4-6-7---7-7-8---8-7-5---5---|
|-(3)-5---5-7-8---8-7-8---8-7-5---5---|
|-(3)-5---5-7-8---8-5-6---6-5-3---3---|
|-(1)-3---3-5-6---6-------------------|

Break:
|-13-13-13-13--4-5--5-4-5--4-------------------------|
|-13-13-13-13--4-5--5-4-5--4-------------------------|
|-14-14-14-15--5-6--6-5-6--5-------------------------|
|-15-15-15-15--6-7--7-6-7--6-x2--5--5-4-5--5--2------|
|-15-15-15-15--6-7--7-6-7--6-----5--5-4-5--5--4------|
|-13-13-13-13--4-5--5-4-5--4-----3--3-2-3--3--4------|
Tap to rate this tab
# A B C D E F G H I J K L M N O P Q R S T U V W X Y Z