Song name
# A B C D E F G H I J K L M N O P Q R S T U V W X Y Z

Blur - Some Glad Morning tab

Blur
Some Glad Morning
Fan Club Single on Think Tank Special Edition
Tabbed By: Saviano Perry (smashingpumpkins11@gmail.com)

Verse:
|---------------------------------------|
|--7/8-5-5------5-7/8-555---------------|
|----------7-4--------------4-5---------|
|---------------------------------------|
|---------------------------------------|
|---------------------------------------|

Pre-Chorus
|---------------------------------------|
|-7-7-8-55-44-999-4444------------------|
|---------------------------------------|
|---------------------------------------|
|---------------------------------------|
|---------------------------------------|

Bridge:
|---------------------------------------|
|---------------------------------------|
|---------------------------------------|
|-77777777------------------------------|
|-77777777------------------------------|
|-55555555------------------------------|

Breakdown:
|----------------------------------------------------------------------------------------|
|----------------------------------------------------------------------------------------|
|--8/99-9999--13-15-16-10-9/1010-10101010-13-15-16-10------------------------------------|
|----------------------------------------------------------------------------------------|
|--6/77-7777--11-13-14-8--7/8-8--8-8-8-8--11-13-14--8------------------------------------|
|----------------------------------------------------------------------------------------|
Tap to rate this tab
# A B C D E F G H I J K L M N O P Q R S T U V W X Y Z