Song name
# A B C D E F G H I J K L M N O P Q R S T U V W X Y Z

Blur - I Know tab

Tabbed By: Saviano Perry
Smashingpumpkins11@gmail.com

Song: I Know
Album: She's So High (Single)
Artist: Blur
Guitarist: Graham Coxon

Intro :                                 End On:
|---------------------------------|     |--------|
|----------------11-9-------------|     |--------|
|---------xxxxx--11-9-------------|     |--------|
|--9h11-9-xxxxx--------------(x8)-|     |-11b----|
|---------------------------------|     |--------|
|---------------------------------|     |--------|

Verse:
|----------------------------------|
|-----------------------9----------|
|-11p9------------------9----------|
|--------11--11p9------------------|
|--------------------11------------|
|----------------------------------|

Chorus:
|---9-x---9-------|
|---9-x---9-------|
|--10-x--10-------|
|--11-x--11-------|
|--11-x--11-------|
|--9---x--9-------|

Solo:                           
|--9/7-xxx-7----9/7-------------|       
|--9/7-xxx-7----9/7-------------|       
|-10/8-xxx-8---10/8-------------|       
|-11/9-xxx-9---11/9-11p9-11-----| x4 
|-11/9-xxx-9---11/9-------------|       
|--9/7-xxx-7----9/7-------------|       

Then:
|---------------------------------------------------|
|-9b-7b--9b-7b--9b-11b-13b-15b----------------------|
|-9b-7b--9b-7b--9b-11b-13b-15b----------------------|
|---------------------------------------------------| x2        
|---------------------------------------------------|
|---------------------------------------------------|
Tap to rate this tab
 
# A B C D E F G H I J K L M N O P Q R S T U V W X Y Z