Guitaretab - guitar tabs
Song name
# A B C D E F G H I J K L M N O P Q R S T U V W X Y Z

Blur - For Tomorrow tab

Okay, I'm not tabbing out the timing for this because that'd be even more time consuming
this is.  Just play it along with the song to figure it out.  I figured this out by ear
with the LIVE version of this song, so basically all of the strings and choir are 
into it because that's what Graham does.

Another important thing is that I'm tabbing this to the extended version, which if
playing the original version means that you just take out the bit that I'll point out 

Also, Graham does things where he quickly changes from note to note without actually
it...he just lets it change as he removes or presses down on his fingers.  I'll put this *
between whichever notes he does that on.

Enjoy! :D

Intro + verse:

E -----------------------------2---2--2--2--2-----------|
B -----------------------------2---2--2--2--2-----------|
G --4--4--4--6--6--X--4--4--X--2---2--2--2--2--4--4--4--|
D --4--4--4--6--6--X--4--4--X------------------4--4--4--|
A --2--2--2--4--4--X--2--2--X------------------2--2--2--|
E ------------------------------------------------------|

E --------4---------4-------3--------3--3--3-------------|
B --------4---------4-------3--------3--3--3-------------|
G --------------------------------------------------2----|
D --------------------------------------------------3----|
A --------------------------------------------------3--3-|
E --4--4-----4--4--4--3--3-----3--3-----------1--1-------|

E --------------2--2--2--2-------------------------------|
B --------------3--3--3--3-------------------------------|
G --------0-----2--2--2--2--------------------2--2--2--2-|
D --------2-----------------4--2--------------3--3--3--3-|
A --3--3--3--3--------------------5--2--------3--3--3--3-|
E --------------------------------------1--1--1--1--1--1-|

E ----------------------------|
B ----------------------------|
G --4--4--4--4----------------|
D --5--5--5--5--------0--3**0-|   (Play all of this twice)
A --5--5--5--5-----2----------|
E --3--3--3--3--3-------------|


E -----------------------------------------------------|
B -----------------------------------------------------|
G -----5--5--5--4--2--0-----0**2--3--------------------|
D --------------------------------------------7**5-----|
A --------------------------------------------------7--|
E --5--------------------3-----------3--5--5-----------|

(Play three times and then finish your chorus with):
[ Tab from: ]
E ----------------------------------------------|
B ----------------------------------------------|
G -----2--2--2--2--2-----4--4--4----------------|
D -----3--3--3--3--3-----5--5--5--------0--3**0-|
A -----3--3--3--3--3-----5--5--5-----2----------|
E --1--1--1--1--1--1--3--3--3--3--3-------------|

(Go back to the verse and play two times before returning to your chorus)

Solo/bridge (you can either play this solo or the verse beneath it with the end of the
omitted before playing twice).

E -----------2--2--2-----------------------------------2--2--2-|
B --5--4--5-----------4--7--3--2--0-----5--4**5**4--5----------|
G -----------------------------------2-------------------------|
D -------------------------------------------------------------|
A -------------------------------------------------------------|
E -------------------------------------------------------------|

E -----------------------------------------------2--2--2--2---|
B --4--7--3--2--0--------------------------------3--3--3--3---|
G -----------------2--------2--2-----------0-----2--2--2--2---|
D --------------------------3--3-----------2-----0--0--0--0---|
A --------------------------3--3--3--3--3-----3---------------|
E --------------------1--1------------------------------------|

E -----------------------------------------------------------|
B -----------------------------------------------------------|
G --------------------2--2--2--2--4---4--4--4----------------|
D --4--2--------------3--3--3--3--5---5--5--5--------0--3**0-|
A --------5--2--------3--3--3--3--5---5--5--5-----2----------|
E --------------1--1--1--1--1--1--3---3--3--3--3-------------|

(From here repeat your verse ONE time and then, for the extended version go into
you're playing the original skip this section, which I'm just going to give the chords for!)

Now, for the extended bit with the horns you can simply play the chords as many times as
like or mess about a bit by matching the horns. :)  The chords are Am, Gmaj & Dmaj.  I
play them two times and then start playing Graham's solo until the end of the song.


(Graham plays this solo until the song ends, you can either play the regular chords
the end or do this):

E ----------------------------------|
B --7**8**7-------------------------|
G -----------7--4**0--2**4--2**0----|
D --------------------------------2-|
A ----------------------------------|
E ----------------------------------|

(Play this twice and then, the third time, instead of hitting the 2 on the D play this):

E -------------------------------------|
B -------------------------------------|
G --------2--2--2--2--4--4--4--4--4--4-|
D --------3--3--3--3--5--5--5--5--5--5-|
A --------3--3--3--3--5--5--5--5--5--5-|
E --1--1--1--1--1--1--3--3--3--3--3--3-|

Then you go back into the solo and play these last two bits until the song
fades out. :)

TABBED BY: Andrea L.
Related for For Tomorrow tab