Song name
# A B C D E F G H I J K L M N O P Q R S T U V W X Y Z

Blur - Music Is My Radar tab

----------------------------------------------------------------------------
			     Music is my Radar - Blur
----------------------------------------------------------------------------
Tabbed by: Stripes16

Tuning: Standard

this is a tab for my guitarist, it's not exact but it works.

Intro:

E|---------------------------15--15--15--15------15--15----15-|
B|----------------15b------16------16--16------16--16--16-----|
G|-1------14/-16---------14----14------------14----------14---|
D|-2----------------------------------------------------------|
A|-2----------------------------------------------------------|
E|-0----------------------------------------------------------|

E|---15--15--15-|
B|-16--16--16---|
G|--------------|
D|--------------| play these three lightly so they kind of fade.
A|--------------|
E|--------------|

Verse, repeated until the scale:

E|-----15—-15----15--15--15--15-|
B|---16--16--16----16--16--16---|
G|-14----------14---------------| play the last three lightly
D|------------------------------|
A|------------------------------|
E|------------------------------|

Scale:

E|-------------------------------------------------------|
B|---------------------------------------------8----8----|
G|----------------------------------9-7-9--7-9---10---10-|
D|-------------------9----9-12-9-12----------------------|
A|-------10-12-10-12---12--------------------------------|
E|-12-10-------------------------------------------------|

E|---------------------|
B|-10-8-10-8-10-12/-17-|
G|---------------------|
D|---------------------|
A|---------------------|
E|---------------------|


Then for the “ahhh don’t stop me bit”, just play low E chord over and over, with 
Play it whenever the “ahhh” is sung.

It then comes into the next verse and you need to play a high E chord over and over, 
diagram:

E|-12-|
B|-12-|
G|-13-|
D|-14-|
A|-14-|
E|-12-|

The last chord you need to play low E though, with distortion.

Play this a couple of times, keeping the distortion then:

E|-----15---|
B|---16--16-|
G|-14-------|
D|----------|
A|----------|
E|----------| until the end of the bridge.

Then it’s back to the verse:

E|-----15—-15----15--15--15--15-|
B|---16--16--16----16--16--16---|
G|-14----------14---------------| play the last three lightly
D|------------------------------|
A|------------------------------|
E|------------------------------|

About half way through this verse you start playing the high E chord again. Then it’s 
to the bridge:

E|-----15---|
B|---16--16-|
G|-14-------|
D|----------|
A|----------|
E|----------|


Then the solo, you need fuzz for this:

E|---------------------------------------------|
B|---------------------------------------------|
G|---------------------------------------------|
D|---------------------------------------------|
A|---------------------------------------------|
E|-0--3-5-7-3-rest for the bass part-03--5-7-3-|

x2

Scale:

E|-------------------------------------------------------|
B|---------------------------------------------8----8----|
G|----------------------------------9-7-9--7-9---10---10-|
D|-------------------9----9-12-9-12----------------------|
A|-------10-12-10-12---12--------------------------------|
E|-12-10-------------------------------------------------|

E|---------------------|
B|-10-8-10-8-10-12/-17-|
G|---------------------|
D|---------------------|
A|---------------------|
E|---------------------|

then same as before for pre chorus

finish by just improvising with E chords etc.


============================================================================
Tap to rate this tab
# A B C D E F G H I J K L M N O P Q R S T U V W X Y Z