Song name
# A B C D E F G H I J K L M N O P Q R S T U V W X Y Z

Blur - Im Fine tab

Tabbed By: Saviano Perry
smashingpumpkins11@gmail.com

Blur
I'm Fine
Popscene Single, Modern Life Is Rubbish Special Edition

Intro/Verse:
|-5p3---------4------|
|----5p3-----4-4-----|
|-------5p3-4---4----|
|--------------------|
|--------------------|
|--------------------|

Chorus:
                    G
And I'd like you to know
     A
It's alright
          B     G    A
There's a world around us
              G
I need you to know
         A
I'm alright
    B      G      A    G
No need to worry about me
              A G  A G A G A G
Cause I'm just fine

Solo:
|-----------------------------|
|-----------------------------|
|-6p4--------5----------------|
|----6-6p4--5-5---------------|
|---------6----5--(/88888-7)--|
|-----------------------------|
Tap to rate this tab
# A B C D E F G H I J K L M N O P Q R S T U V W X Y Z