Song name
# A B C D E F G H I J K L M N O P Q R S T U V W X Y Z

Blur - Clover Over Dover tab

BLUR - Clover Over Dover

Tabbed by: lzparkma
Tuning: Standard E

Intro (harpsichord arranged for guitar)

e|------------------------------|--------------------------------|
B|------------------------------|--------------------------------|
G|-14-16-17-16-14-----(14)-(16)-|-------14-----------------------|
D|----------------16------------|-14-16----16-14-13--(14)-(16)---|
A|------------------------------|--------------------------------|
E|------------------------------|--------------------------------|

e|-------------------|-------------------------------11----------|
B|-------------------|-------------------------------------12----|
G|-------------------|-------------------------12-------11----11-|
D|-14-13-14-13-14-13-|-14-13-11----------11-------11-------------|
A|-------------------|----------14-11-13----13-------------------|
E|-------------------|-------------------------------------------|


bridge

e|-------------7-----9-----|-11/12---------11/12------11-|
B|-5-----9-------9-----12--|--------12--9---------12-----|
G|---4-----9---------------|-----------------------------|
D|-------------------------|-----------------------------|
A|-------------------------|-----------------------------|
E|-------------------------|-----------------------------|

verse

e|-------------------------|-----------------------------|
B|-------------------------|-----------------------------|
G|-7/9-9-9--8--6--------9--|-----------------------------|
D|----------------9--7-----|-(9)-11-p10-p9----9----------|
A|-------------------------|---------------11------------|
E|-------------------------|-----------------------------|


chorus

e|----------------------------|-------------------------------|
B|---5----4----2--2-p1-p0---0-|---5-----------------------2/4-|
G|---6----4----2----------1---|---6------1-----2-2--2-1---2/4-|
D|---6----4----2--------------|---6-0----2-----2-2------2-----|
A|-4-4--2-2--0-0--------------|-4-4-0----2-----0-0------------|
E|----------------------------|--------0---(0)----------------|
Tap to rate this tab
# A B C D E F G H I J K L M N O P Q R S T U V W X Y Z