Song name
# A B C D E F G H I J K L M N O P Q R S T U V W X Y Z

Blur - Country Sad Ballad Man chords

Highlighted       Show chord diagrams
My favourite song from Blur. Sounds good to me :)

Intro Riff:
E|-----------------------1--3-----------------1-----0--2--
B|-----------------1-----3--3-----------------1-----0--4--
G|-----------------2-----1--0-----------------2-----1--4--
D|-----------0-----0-----3--0-----------0-----3-----2--4--
A|-----0--2-----3--3--1--1--2-----0--2--------3-----2--2--
E|--3-----------------------3--3-----------1--1--0--0-----

C       B7     G      F      E      B

C       B7     G
Yeah, I found nowhere
C         Bb   G
It got to know me
C      B7       G
Let me sleep all day
C         Bb   G
Spend the money
C         B7     G
I haven't felt my legs
C         Bb     G
Since the summer
C     B7           G
And I don't call my friends
C            Bb             G   F
Forgot their numbers

   G F  G
VIP 223

           F        G
I've had my chances
           F        G  
Or did they have me
           F       G
Now stay up nights
      F   G
Watch TV
          F Dm7   G
I'm country sad
F#
I'm a ballad man

C          B7      G
I'm on the comeback road
C           Bb      G
Yeah, I'm a blizzard
C         B7   G
And in my motor home
C           Bb  G     F
Sweat on my pillow all night

   G F  G
VIP 223

           F        G
I've had my chances
           F        G  
Or did they have me
           F       G
Now stay up nights
      F   G
Watch TV
          F Dm7   G
I'm country sad
F#
I'm a ballad man
  

E-------------------------------------------------------|
B-------------------------------------------------------|
G------<12>---<12>----<12>---<12>-------2-4--7-7b-5-5b--|
D--<12>---<12>----<12>---<12>-------1-4------7----5-----|
A---------------------------------2----------5----3-----|
E-------------------------------------------------------|


      B/F#   D    C#  G   B
I'm a ballad man...

F6      G      F6     G      F6
Tap to rate this tab
# A B C D E F G H I J K L M N O P Q R S T U V W X Y Z