Guitaretab - guitar tabs
Song name
# A B C D E F G H I J K L M N O P Q R S T U V W X Y Z

Blur - Gene By Gene tab

Song:    Gene by gene
Artist:  Blur
Album:   Think Tank

Here we go. 

Intro (w/ Wah)

 C                         F  
|--3--3--3--5--1--3--33--|-------------------------|
|-------------------------|----3----1----3----1-----|
|-------------------------|-------------------------|
|-------------------------|-------------------------|
|-------------------------|-------------------------|
|-------------------------|-------------------------|


C
I've got a brain in a left hand drive
F
I don't sleep other side
C
I ride a bullet like I'm Steve McQueen
F
Each town, I intervene
C
A gram of keef and the barn is jumping
F
It's alright, we got time
C
Got a radio hit in mind, 
F
Can't see am I blind


C                 Bb
Every night and day, I never thought it
C            Bb
In the U.S.A_____ I delete myself
[ Tab from: http://www.guitaretab.com/b/blur/48995.html ]
 C                         Bb
|--3--0------------------|--3--0-------------------|
|--------1----------1--1--|--------1----------1--1--|
|-----------0---3---------|-----------0---3---------|       x2
|-------------------------|-------------------------|
|-------------------------|-------------------------|
|-------------------------|-------------------------|


C 
Got to get to know you gene by gene
F
You're my jellybean
C
I'm in shower and I'm Force 15
F
But I'm dead when I'm clean
C
Fatboy and the barn is jumpin'
F
It's alright, it's just fight
C
Got to get into a better business
F
Deep down, happiness

C                 Bb
Every night and day, I never thought it
C            Bb
In the U.S.A_____ I delete myself


C                         Bb
|--3--0------------------|--3--0-------------------|
|--------1----------1--1--|--------1----------1--1--|
|-----------0---3---------|-----------0---3---------|       x8
|-------------------------|-------------------------|
|-------------------------|-------------------------|
|-------------------------|-------------------------|

Thats how it goes. Questions? Comments? e_hvid@hotmail.com
Related for Gene By Gene tab